All Things Are Quiet Silent

Guitar Chords
Cm F F/Eb Cm 
Cm Gm Gm F Eb F Eb Eb/Dm7 Cm F Cm 
Cm Bb F Gm 
Cm Bb Eb F 
Cm Bb F 

Flute Solo
E|-----------1-3-5-1-3------------------3-5-6-3-5-6-3----8-----------------------------|
B|-1-3-4-3-1-----------4-3-1--1-3-4-3-1----------------8---11-10-11-10-8-10-8----11----|
G|----------------------------------------------------------------------------10-------|
D|-------------------------------------------------------------------------------------|
A|-------------------------------------------------------------------------------------|
E|-------------------------------------------------------------------------------------|

E|-3-1-------1-3-5-1-3-1-----------------------------------|
B|-----4-3-1-------------3-1-------------------------------|
G|---------------------------------------------------------|
D|---------------------------------------------------------|
A|---------------------------------------------------------|
E|---------------------------------------------------------|

E|---------------------------------1-3-3~6~5--------------|
B|---1-3~4~3--1-1---1---------1-3~4---------6-------------|
G|-0---------3-3-----3-0--0-3-------3--------5------------|
D|--------------------------------------------2-----------|
A|--------------------------------------------------------|
E|--------------------------------------------------------|

E|----------------1---------------------------------|
B|-1-1~4~3--1-1-1-----------------------------------|
G|--0--------3--------------------------------------|
D|--------------------------------------------------|
A|--------------------------------------------------|
E|--------------------------------------------------|

Guitar Solo
Cm F Eb F 
E|-6------1-3------------------1-3------------------|
B|--8---------6-------6-4-----------6---------------|
G|---8--8-----5-5---5---3-3---3-----5-5---5---------|
D|----10------3---3-----1---1-------3---3-----------|
A|--------------------------------------------------|
E|--------------------------------------------------|
Cm F Gm Cm 
E|-6------1-3----------------------------------------|
B|--8---------6-------6-4-3-------1-3-4--------------|
G|---8--8-----5-5---5-------3---------5---5----------|
D|----10------3---3-----------5-------5-5---5--------|
A|------------------------------5-----3--------------|
E|------------------------3--------------------------|
:

© Авторские права на тексты, песни, видео и другую представленную информацию принадлежат правообладателям. Аккорды, табы, gtp и тексты песен взяты из открытых источников.
Возрастная категория сайта: 18+
Тексты некоторых песен могут содержать нецензурные выражения, брань.
© 2020 guitar-chords.ru