Beyond Sunset

Guitar Part
This is the most proper version without some Richie's
quick trick at the end of the song

E|---------0-2-0---------0-2-4-2-0-------0-2-0-0----|
B|-4---2-4-------4----4--------------2-4---------4--|
G|--------------------------------------------------|
D|--------------------------------------------------|
A|--------------------------------------------------|
E|--------------------------------------------------|

E|--------------------------------------------12----|
B|-0-----0-----------------0----------------4-------|
G|---1-3---3-1-3~1~------3---1-1~-------------------|
D|-----------------4-1-4---------4~2~1----1---------|
A|--------------------------------------------------|
E|--------------------------------------------------|

E|---------0-2-0---------0-2-4-2-0-------0-2-0-0----|
B|-4---2-4-------4----4--------------2-4---------4--|
G|--------------------------------------------------|
D|--------------------------------------------------|
A|--------------------------------------------------|
E|--------------------------------------------------|

E|-7--4-6-7-9-6*7----2-4-6-7*6-4----4-2-0--0------3~4~6--|
B|----------------------------------------4-4--4-4-------|
G|-------------------------------------------------------|
D|-------------------------------------------------------|
A|-------------------------------------------------------|
E|-------------------------------------------------------|

E|------0-2-0-------------0----------------------------|
B|-4--4-------4-2*4---2-4---4-2-0*2-------0------------|
G|------------------------------------1-3---3-1-3------|
D|-----------------------------------------------------|
A|-----------------------------------------------------|
E|-----------------------------------------------------|

E|------0-2-0-------------0-----0----0-2-4-2-0------|
B|-4--4-------4-2-----2-4---4-2----------------4----|
G|--------------------------------------------------|
D|--------------------------------------------------|
A|--------------------------------------------------|
E|--------------------------------------------------|

E|---------0-2-0---------0-2-4-2-0-------0-2-0-0----|
B|-4---2-4-------4----4--------------2-4---------4--|
G|--------------------------------------------------|
D|--------------------------------------------------|
A|--------------------------------------------------|
E|--------------------------------------------------|

E|-7--4-6-7-9-6*7----2-4-6-7*6-4----4-2-0--0----------------|
B|----------------------------------------4-4~2~4~2-2-0-----|
G|-------------------------------------------------3-1-1-0--|
D|----------------------------------------------------------|
A|----------------------------------------------------------|
E|----------------------------------------------------------|

E|------0-2-0-------------0----------------------------|
B|-4--4-------4-2*4---2-4---4-2-0*2-------0------------|
G|------------------------------------1-3---3-1-3------|
D|-----------------------------------------------------|
A|-----------------------------------------------------|
E|-----------------------------------------------------|

E|------0-2-0-------------0-----0----0-2-4-2-0-----------6~4~6~3------------------|
B|-4--4-------4-2-----2-4---4-2----------------4----------------4-----------------|
G|---------------------------------------------------------------3----------------|
D|--------------------------------------------------------------------------------|
A|--------------------------------------------------------------------------------|
E|--------------------------------------------------------------------------------|

E|---------0-2-0---------0-2-4-2-0-------0-2-0-0----|
B|-4---2-4-------4----4--------------2-4---------4--|
G|--------------------------------------------------|
D|--------------------------------------------------|
A|--------------------------------------------------|
E|--------------------------------------------------|

E|--------------------------------------------------|
B|-0-----0-----------------0------------------------|
G|---1-3---3-1-3~1~------3---1-1~-------------------|
D|-----------------4-1-4---------4~2~1----1---------|
A|--------------------------------------------------|
E|--------------------------------------------------|

© Авторские права на тексты, песни, видео и другую представленную информацию принадлежат правообладателям. Аккорды, табы, gtp и тексты песен взяты из открытых источников.
Возрастная категория сайта: 18+
Тексты некоторых песен могут содержать нецензурные выражения, брань.
© 2020 guitar-chords.ru