Acoustic

The way you should play (hold) following chords:
Dm  x57765 (barre)
C   x35553 (barre)
Am  x02210
Bb  x13331 (barre)
A   x02220
F   x 8'10'10'10'8

I. Guitar Part (Arpegio Style)
Dm                 C         Am        Bb                    A 
E|---------------5-----7-5--||-3------------------0-1---------------------0----------|
B|---6-------8-----6--------||-5-5----5---1-----3---3-3-----3---3-----2-3-2-2----2---|
G|-7---7---7--5------7------||-5---5---5--2-2-------3---3-----3---3-------2---2----2-|
D|-------7------------------||-------5----2---2-----------4---------3-----------2----|
A|---5-----------5----------||-3----------0---------1-----------1--------0---------0-|
E|--------------------------||-------------------------------------------------------|

Dm                           C         Am        Bb        A         Dm 
E|---------------5-----7-5--||-3-----------------0-1-----0-------------------0-1-0-----|
B|---6-------8-----6--------||-5-5----5--1-----3---3-3----3--2-----0-2-3---3-------3---|
G|-7---7---7--5------7------||-5---5---5-2-2-------3---3---3---2-------2-2-------------|
D|-------7------------------||-------5---2---2-------------------2-----0-------0---0---|
A|---5-----------5----------||-3---------0---------1---------0-------------------------|
E|--------------------------||---------------------------------------------------------|

F                                 C          Am        Bb                    A 
E|-8----------8----8-------7-5--||-3-----------------0-1---------------------0----------|
B|---10---------10---10---------||-5-5----5--1-----3---3-3-----3---3-----2-3-2-2----2---|
G|------10--------------10------||-5---5---5-2-2-------3---3-----3---3-------2---2----2-|
D|---------10-------------------||-------5---2---2-----------4---------3-----------2----|
A|-8---------------8------------||-3---------0---------1-----------1--------0---------0-|
E|------------------------------||------------------------------------------------------|

F                                 C          Am        Bb        A          Dm 
E|-8----------8----8-------7-5--||-3-----------------0-1-----0-------------------0-1-0-----|
B|---10---------10---10---------||-5-5----5--1-----3---3-3-----3--2-----0-2--3-3-------3---|
G|------10--------------10------||-5---5---5-2-2-------3---3----3---2--------2-------------|
D|---------10-------------------||-------5---2---2--------------------2------0-----0---0---|
A|-8---------------8------------||-3---------0---------1----------0------------------------|
E|------------------------------||---------------------------------------------------------|

II. Flute Part (fr.0:50)
E|---1-3-5-7-5-3-0-----0-1---------0----------------|
B|-3---------------1-3-----3-3-2-3---2--------------|
G|-------------------------------------2------------|
D|--------------------------------------------------|
A|--------------------------------------------------|
E|--------------------------------------------------|

E|---1-3-5-7-5-3-0-----0-1-0------------------------|
B|-3---------------1-3-------3-2-0-2-3--------------|
G|--------------------------------------------------|
D|--------------------------------------------------|
A|--------------------------------------------------|
E|--------------------------------------------------|

E|-8-8-8-7-5-3-0-----0-1---------0------------------|
B|---------------1-3-----3-3-2-3---2----------------|
G|-----------------------------------2--------------|
D|--------------------------------------------------|
A|--------------------------------------------------|
E|--------------------------------------------------|

E|-8-8-8-7-5-3-0-----0-1-0--------------------------|
B|---------------1-3-------3-2-0-2-3----------------|
G|--------------------------------------------------|
D|--------------------------------------------------|
A|--------------------------------------------------|
E|--------------------------------------------------|

III. Violin Part (fr.1:40)
E|--------------------------------------------------|
B|--------------------------------------------------|
G|---------------------------------------------2----|
D|-0----2-3-2-0---0-2-----0-----------------0~2-----|
A|--3-0---------3-----3-0----1-1--3--0-0---4--------|
E|--------------------------------------------------|

E|--------------------------------------------------|
B|--------------------------------------------------|
G|--------------------------------------------------|
D|-0----2-3-2-0---0-2------0---------0-----0--------|
A|--3-0---------3-----3-0----3-1-0--------0---------|
E|--------------------------------------------------|

E|--------------------------------------------------|
B|--------------------------------------------------|
G|---0-2-2-0------0---------------------------2-----|
D|-3---------3-----3-2------0--------------0~2------|
A|--------------------3-0-----1-1--3-0-0--4---------|
E|--------------------------------------------------|

E|--------------------------------------------------|
B|--------------------------------------------------|
G|---0-2-2-0------0---------------------------------|
D|-3---------3-----3-2-----0----------0-----0-------|
A|--------------------3-0----3-1-0---------0--------|
E|--------------------------------------------------|

Guitar Part II (Short Nonarpegio fr.1:40)
     Dm         C   Am    Bb        A 
E|-------5--7-5-3-0-----0-1---------0---------------|
B|---6-8--------5---1-3---3-3-3-2-3-2-2-------------|
G|-7-7----------5---2-----3---------2---2-----------|
D|---7--------------2-------------------------------|
A|---5----------3---0-----1---------0---0-----------|
E|--------------------------------------------------|

     Dm         C   Am    Bb    A     Dm  Dm 
E|-------5--7-5-3-0-----0-1-0-----------------------|
B|---6-8--------5---1-3---3---3-2-0-2-3-3-3---------|
G|---7----------5---2-----3-----2-----2---2---------|
D|-7-7--------------2-----------2-----0---0---------|
A|---5----------3---0-----1-----0-------------------|
E|--------------------------------------------------|

   F    F       C   Am    Bb        A 
E|-8--8-8---7-5-3-0-----0-1---------0---------------|
B|-10---10------5---1-3---3-3-3-2-3-2-2-------------|
G|-10---10------5---2-----3---------2---2-----------|
D|------------------2-------------------------------|
A|-8----8-------3---0-----1---------0---0-----------|
E|--------------------------------------------------|

   F    F       C   Am    Bb      A     Dm  Dm 
E|-8--8-8---7-5-3-0-----0-1-0-----------------------|
B|-10---10------5---1-3---3---3-2-2-0-2-3-3-3-------|
G|-10---10------5---2-----3-------2-----2---2-------|
D|------------------2-------------2-----0---0-------|
A|-8----8-------3---0-----1-------0-----------------|
E|--------------------------------------------------|

© Авторские права на тексты, песни, видео и другую представленную информацию принадлежат правообладателям. Аккорды, табы, gtp и тексты песен взяты из открытых источников.
Возрастная категория сайта: 18+
Тексты некоторых песен могут содержать нецензурные выражения, брань.
© 2020 guitar-chords.ru