#табулатура

    
Mono Tanz

Guitar Part

E|-----0--0-1*0-----0-0-|
B|----1--1-----3~1~3----|
G|---2--2---------------|
D|--2-------------------|
A|-0--------0------0----|
E|----------------------|

E|-----0--0-1*0----------|
B|----1--1-----3-1-0---0-|
G|---2--2------------2---|
D|--2--------------------|
A|-0---------------0-----|
E|-----------------------|

E|-----0--0-1*0----1-0----------------|
B|----1--1-----3~1--------3*1-0-------|
G|---2--2------------------------2-1--|
D|--2---------------------------------|
A|-0----------------------------------|
E|------------------------------------|

E|-8--8*7*8-8-8---12-13-12---13-12-10------------------8-7-5-7-8-10-8-7----------------------------------|
B|-10-------------13------------------13-12-10-12-----------------------10-8-----------8-----------------|
G|-9--------------12---------------------------------------------------------9*10--9-10-10-9-7-------7-9-|
D|---------------------------0----------------------------------------------------------------10-9-10----|
A|-0-------------------------------------------0-------0-------------------------------------------------|
E|-------------------------------------------------------------------------------------------------------|

E|-8--8*7*8----7-8-10---12-13-12---13-12-10--------------8-7-5-7-10-7~10*7*10-8-7-5--5-------------------|
B|-10-------10----------13------------------13-12-10-12----------------------------8---------------------|
G|-9--------------------12-------------------------------------------------------------------------------|
D|---------------------------------0---------------------------------------------------------------------|
A|-0-----------------------------------------------------0---------------------------0-------------------|
E|---------------------------------------------------0--------------0---------0--------------------------|

E|-1-0--------------0-------------------------------0-------------|
B|-3---3-1-0-1-3----1-3*1-0-------------1-0---0-1-3-----3---------|
G|-2-------0-----0--0-------2-----------2---2-----------0-0--2----|
D|-0-------0----------------------------2-----------------0--2----|
A|------------------3-------0-----------0---------2-3--------0----|
E|---------3--------------------------------------------3---------|

Guitar Chords (Back Guitar)
Am C C/Hm-G-Am-Em 
Am C-C/Hm-C-Dm-G-Am 
Dm Am Bb F 
Am C-C/Hm-C-Dm-G-Am 

E|-----------0--------------------------0--------|
B|-1*0-0-1-3---3*1~0----------1*0-0-1-3---3------|
G|-2--2--------0-----0-2------2--2----------0-2--|
D|-2-----------0---------2----2-------------0----|
A|-0-------------------0------0---------------0--|
E|-----------------------0----------------0------|

E|-1*0--1-0----------------------------------0---------|
B|----3-----3-1---3-1---3-1--------1*0-0-1-3---3-------|
G|--------------------3-----3~2----2--2----------0-2---|
D|-0-------------------------------2-------------0-----|
A|----------------1----------------0---------------0---|
E|------------------------1--------------------0-------|

E|-------------0-1-0-0~1--0----0-1-0-----------------------|
B|-1-0---0-1-3----------3------1-----3-1-0---0-1-0---------|
G|-2---2-----------------------2-----------2---2---2-0-2---|
D|-2-------------------------------------------2-----------|
A|-0-------0-------0-0----0----0---------------0-------0---|
E|---------------------------------------------------------|

E|-------------0-0~1--5--5-7-8-7-5--------------------------|--0-----12--|
B|-1-0---0-1-3------3--------------8-6-5-3-1-3~5~3----------|------------|
G|-2---2-------------------------------------------5-0-2----|------------|
D|-2--------------------------------------------------------|------------|
A|-0-------0---0-0----0----0-----0---0---------0---0---0----|------------|
E|----------------------------------------------------------|------------|

© Авторские права на тексты, песни, видео и другую представленную информацию принадлежат правообладателям. Аккорды, табы, gtp и тексты песен взяты из открытых источников.
Возрастная категория сайта: 18+
Тексты некоторых песен могут содержать нецензурные выражения, брань.
© 2020 guitar-chords.ru