Pretorious (Courante)

Guitar Part:    E|-------0---2-3-5-2--5-3-2-0-------0-----5-3-2-0-------0-----------|
B|---3------------------------3-2-3---2-----------3-2-3---2---------|
G|-2---2---2--------2-------------------2-------------------2-------|
D|---0---0---0-----0------------------------------------------------|
A|------------------------------0-------------------0---------------|
E|----------------------0-------------------0-----------------------|

E|---0-2-3*2-0-------------------0-------|
B|-------------3-2-----0-2-3-2-3---3-----|
G|-2---------------2-2-------------------|
D|-------0-------0-----------------0-----|
A|---0-------0---------------0-----------|
E|---------------------3-----------------|

E|-0-----0-----0-----0------0-2-4-5-4-5-7-5-|
B|---2-----2-----2-----2--------------------|
G|-----2-----2-----2-----2------------------|
D|----------------------------0-------------|
A|---0-----0-----0-----0------------------0-|
E|----------------------------------0-------|

E|-5-2---5-2---5-3-3-2-0--------------------|
B|-----3-----3-----------3-3-2-3------------|
G|------------------------------------------|
D|---0-----0-------------------0------------|
A|---------------------0--------------------|
E|---------------3--------------------------|

E|-3*2*3-|
B|-------|
G|-------|
D|-------|
A|-------|
E|-------|

E|-7-5-4-4-4-0----------3--------0~5~10----5~3~2~0-----0---|
B|-------------0-----0~3--------2-----------------3~2~3-3--|
G|------------------0----------2---------------------------|
D|-----------------0----------2----------------0--------0--|
A|----------------2----------0----------------------0------|
E|---------------3-----------------------------------------|

E|-5-----------------0---3~2~0------14~10------------7-------5---------------|
B|--7-----------------2-------3----------10---------8-8-------5----3---------|
G|---7--------4-----2--2-------------------11------7---7-------6-------------|
D|----7------2-2---2-----0----0--------------12---5---------7---7--0---------|
A|-----5----2---2-0----------------------------12----------7-----------------|
E|------5--3------------------------10--------------------5------------------|

E|-10-------9-------------------------------------10-------9---------------------0--------------0~5~10------------
B|-10-10-----10----12~10---10-------10-8-7--------10-10-----10---12~10------0~2~3-3~0----------2------------------
G|-11---11-----11--11---11---11-----7------10-----11---11-----11-11---11----------------2-----2-------------------
D|-0---------------0-------0----0---0-------------0--------------0---------------------------2--------------------
A|----------0------------------------------0---------------0----------------0-----------0---0---------------------
E|----------------------------------------------------------------------------------------------------------------

-12-10-9----9-----------------------------9-17-------------------|
---------10---10---10----------------10-10-----------------------|
-----------------9----9----9--------9--9-------------------------|
------------------------11---11----7-----------------------------|
-0-------0-------------------------------------------------------|
-----------------------------------------------------------------|

E|-------0---2-3-5-2--5-3-2-0-------0-----5-3-2-0-------0-----------|
B|---3------------------------3-2-3---2-----------3-2-3---2---------|
G|-2---2---2--------2-------------------2-------------------2-------|
D|---0---0---0-----0------------------------------------------------|
A|------------------------------0-------------------0---------------|
E|----------------------0-------------------0-----------------------|

E|---0-2-3*2-0-------------------0-------|
B|-------------3-2-----0-2-3-2-3---3-----|
G|-2---------------2-2-------------------|
D|-------0-------0-----------------0-----|
A|---0-------0---------------0-----------|
E|---------------------3-----------------|

E|-------0---2-3-5-2--5-3-2-0-------0-----5-3-2-0-------0-----------|
B|---3------------------------3-2-3---2-----------3-2-3---2---------|
G|-2---2---2--------2-------------------2-------------------2-------|
D|---0---0---0-----0------------------------------------------------|
A|------------------------------0-------------------0---------------|
E|----------------------0-------------------0-----------------------|

E|---0-2-3*2-0-------------------0---0-2-0-2-3-2-3-5-0-2-3-0-5-10--|----2-|
B|-------------3-2-----0-2-3-2-3---3-------------------------------|---3--|
G|-2---------------2-2---------------------------------------------|--2---|
D|-------0-------0-----------------0-----------0---------------0---|-0----|
A|---0-------0---------------0-----------0-----------0-----0-------|------|
E|---------------------3-------------------------------------------|------|

© Авторские права на тексты, песни, видео и другую представленную информацию принадлежат правообладателям. Аккорды, табы, gtp и тексты песен взяты из открытых источников.
Возрастная категория сайта: 18+
Тексты некоторых песен могут содержать нецензурные выражения, брань.
© 2020 guitar-chords.ru