Обратите внимание! В этом подборе есть аккорд с тоникой Си, который обозначается как H. У нас аккорд B и H равнозначны, В - это "си" и H - это "си".
Если в этом подборе оба этих обозначений, то скорее всего тут B - это Bb (A#). При игре Вы сразу поймете, какой нужно брать аккорд. Хорошей игры на гитаре!
Инструмент: Гитара (6-ти струнная) поменять
Строй: Standart (E A D G B E) поменять
Без каподастра поменять
"Imaginations from the other side"
A Past and Future Secret

Intro (2x):
   Em             D     Hm    Em             D     Em 
|--------------------------|--------------------------|
|-----0--1--0-----0--------|--------------------------|
|--------------2-----0--2--|--------------------------|
|--2-----------------------|--2--4--5--4--2--0-----2--|
|-----------------2-----0--|--------------------2-----|
|--0-----------------------|--0--------------------0--|

Bridge (1x):
   Em                  D      Em 
|--------------------------|--------------------------|
|--------------------------|--------------0-----------|
|--------------------------|-----------------2--0-----|
|--------------------------|-----------------------4--|
|--------------------------|--------------------------|
|--------------------------|--------------------------|
Em            D         Hm         Em     D   Em 
Oh, I haven't been here for a long time
   Em        D 
in blindness and decay
    Hm            C  Am   D 
the circle's been closed, now
C  Am          D 
my song of the end } 2x
             Em 
i've seen it all
Em 
listen crowd
     D        Hm 
I'll tell you everything
Em 
though I have to say
  D          Em 
I don't know much
Em 
talking about a past
    D      Hm 
and future secret
Em 
most call him once
    D      Em 
and future kings
Em 
far back in the past
  D       Hm 
I saw his ending
Em 
long before I started
  D        Em 
I knew his name
Em                        D 
he's the one who took the sword
    Hm 
out of the stone
Em          D            C  Am  D 
it's how an ancient tale began
I hear it in the cold winds
C  Am          D 
my song of the end } 3x
I had seen it in my dreams
C  Am          D 
my song of the end
I can't stop the darkening clouds
Em     D 
I feel cold
       Hm              Em 
when I cry out for the bark
Em 
take him back to avalon
      Em       D 
dwell on for a new age
   C                  Em 
so long sleep well my friend
Em 
take him back to avalon
       Em       D 
I will wait and guard
                  C Am  D 
the future king's crown
C  Am          D 
my song of the end } 4x
it was nice but now it's gone
C  Am          D 
my song of the end
it was fixed the whole time
C  Am          D 
my song of the end
         Em 
I saw it all

            

© Авторские права на тексты, песни, видео и другую представленную информацию принадлежат правообладателям. Аккорды, табы, gtp и тексты песен взяты из открытых источников.
Возрастная категория сайта: 18+
Тексты некоторых песен могут содержать нецензурные выражения, брань.
© 2021 guitar-chords.ru