guitar1
                                                                             
D#||--0--------------------|-----------------------|------------------------|
A#||-------3--1--0----0----|--1--0-------0---------|-------1----3--1--0--1--|
F#||-----------------------|--------0---------2----|--0---------------------|
C#||-----------------------|-----------------------|------------------------|
G#||--0--------------------|-----------------------|-------0----------------|
D#||------------------3----|-------------0---------|------------------------|

--0--------------------|-----------------------|--------------------|
-------3--1--0----0----|--1--0-------0---------|--------------------|
-----------------------|--------0---------2----|--0----2------------|
-----------------------|-----------------------|--------------------|
--0--------------------|-----------------------|--------------------|
------------------3----|-------------0---------|--------------------|

--0--------------------|-----------------------|------------------------|
-------3--1--0----0----|--1--0-------0---------|-------1----3--1--0--1--|
-----------------------|--------0---------2----|--0---------------------|
-----------------------|-----------------------|------------------------|
--0--------------------|-----------------------|-------0----------------|
------------------3----|-------------0---------|------------------------|

--0--------------------|-----------------------|-------|--------------------|
-------3--1--0----0----|--1--0-------0---------|-------|--5--------3--------|
-----------------------|--------0---------2----|--0----|--------------------|
-----------------------|-----------------------|-------|--------------------|
--0--------------------|-----------------------|-------|--0-----------------|
------------------3----|-------------0---------|-------|--------------------|

--------------------|------------------|-------------------|-------------------|
--1--------0--------|------------------|-------------------|-------------------|
--------------------|------------------|--0----------------|----------2--------|
--------------------|------------------|-------------------|-------------------|
--------------------|------------------|-------------------|----------0--------|
-----------3--------|------------------|--0----------------|-------------------|

------------------|---------------------|---------------------|
------------------|--5------------------|----------------3----|
------------------|---------4------5----|--4------5-----------|
------------------|---------------------|---------------------|
------------------|--0------------------|---------------------|
------------------|---------------------|--3------------------|

---------------------|---------------------|---------------------|
---------------------|---------------------|--5------3-----------|
--4------2------0----|--5------4------5----|----------------5----|
---------------------|---------------------|---------------------|
---------------------|--0------------------|--0------------------|
--0------------------|---------------------|---------------------|

---------------------|---------------------|---------------------|
----------------3----|---------------------|---------------------|
--4------5-----------|--4------5------4----|--5------4------5----|
---------------------|---------------------|---------------------|
---------------------|---------------------|--0------------------|
--3------------------|--0------------------|---------------------|

---------------------|---------------------|---------------------|
--5------------------|----------------3----|----------------3----|
---------4------5----|--4------5-----------|--4------5-----------|
---------------------|---------------------|---------------------|
--0------------------|---------------------|---------------------|
---------------------|--3------------------|--0------------------|

----------------------|--------------------|--------------------|
--5h6h5h3-------------|--1--------0--------|-----------0--------|
----------------------|--------------------|--2-----------------|
--0-------------------|--------------------|--------------------|
----------------------|--3--------2--------|--0--------2--------|
----------------------|--------------------|--------------------|

----------------------|----------------------|-----------------0----|
--1------1--0------0--|------------0---------|--3---------3---------|
----------------------|--2------2-------0----|-------2--------------|
----------------------|----------------------|--0-------------------|
--3---------2---------|--0------0------------|-----------------0----|
----------------------|----------------------|----------------------|

------------1------0--|-------0--------------|--1------0-------0----|
--1-------------------|--3---------1---------|------------3---------|
-------2--------------|-----------------2----|----------------------|
------------0---------|----------------------|--0-------------------|
----------------------|-------0--------------|-----------------0----|
----------------------|----------------------|----------------------|

------------1------0--|-------5--------5----|--7-----------------|
--1-------------------|--3------------------|---------------3----|
-------2--------------|---------------------|--------------------|
------------0---------|-------3--------3----|--5------------0----|
----------------------|---------------------|--------------------|
----------------------|---------------------|--------------------|

-----------1--0h-1-------|--------------------|---------------------|
--------3-----------3----|--------------------|---------------------|
-----2-------------------|--------------------|---------------------|
--0----------------------|------3--------3----|--5--------5----0----|
-------------------------|--------------------|---------------------|
-------------------------|--------------------|---------------------|

------------------------|-----------------0----|------------1------0--|
------------------------|--3---------3---------|--1-------------------|
------------------------|-------2--------------|-------2--------------|
------0----0------------|--0-------------------|------------0---------|
------------------------|-----------------0----|----------------------|
------------------------|----------------------|----------------------|

-------0--------------|--1------0-------0----|------------1------0--|
--3---------1---------|------------3---------|--1-------------------|
-----------------2----|----------------------|-------2--------------|
----------------------|--0-------------------|------------0---------|
-------0--------------|-----------------0----|----------------------|
----------------------|----------------------|----------------------|

----------------------|----------------------|--1----0--------------|
--3---------1---------|-------1---------1----|------------3----1----|
-----------------1----|------------1---------|----------------------|
-------3--------------|--3-------------------|----------------------|
----------------------|----------------------|-------0--------------|
----------------------|----------------------|----------------------|

--------------------|--------------------------|--------------------------|
--3----0------------|-------------1h3h1h0------|-------------1h3h1h0------|
--------------------|--2-------2----------2----|--2-------2----------2----|
--------------------|--------------------------|--------------------------|
-------0------------|--0----0-----0-------0----|--0----0-----0-------0----|
--------------------|--------------------------|--------------------------|

----------------------|--------------------------|--------------------------|
--5-------5--7--------|-------------1h3h1h0------|-------------1h3h1h0------|
----------------------|--2-------2----------2----|--2-------2----------2----|
----------------------|--------------------------|--------------------------|
--3----3-----5--------|--0----0-----0-------0----|--0----0-----0-------0----|
----------------------|--------------------------|--------------------------|

----------------------|---------------------|---------------------|
--5-------5--7--------|--1------0------1----|--0------1------0----|
----------------------|---------------------|---------------------|
----------------------|---------------------|---------------------|
--3----3-----5--------|--0------------------|---------------------|
----------------------|---------------------|--3------------------|

---------------------|--3------1------0----|---------------------|
--3------5------6----|---------------------|--6------5------6----|
---------------------|---------------------|---------------------|
--0------------------|---------------------|--0------------------|
---------------------|---------------------|---------------------|
---------------------|--3------------------|---------------------|

--3------1------0----|----------------3----|--3----------------|
---------------------|--6------5-----------|-------------------|
---------------------|---------------------|-------------------|
---------------------|--0------------------|-------------------|
---------------------|---------------------|-------------------|
--3------------------|----------------3----|--3----------------|

---------------------|---------------------|---------------------|
--5------------------|----------------3----|---------------------|
---------4------5----|--4------5-----------|--4------2------0----|
---------------------|---------------------|---------------------|
--0------------------|---------------------|---------------------|
---------------------|--3------------------|--0------------------|

---------------------|---------------------|---------------------|
---------------------|--5------3-----------|----------------3----|
--5------4------5----|----------------5----|--4------5-----------|
---------------------|---------------------|---------------------|
--0------------------|--0------------------|---------------------|
---------------------|---------------------|--3------------------|

---------------------|---------------------|---------------------|
---------------------|---------------------|--5------------------|
--4------5------4----|--5------4------5----|---------4------5----|
---------------------|---------------------|---------------------|
---------------------|--0------------------|--0------------------|
--0------------------|---------------------|---------------------|

---------------------|---------------------|---------------------|
----------------3----|---------------------|---------------------|
--4------5-----------|--4------2------0----|--5------4------5----|
---------------------|---------------------|---------------------|
---------------------|---------------------|--0------------------|
--3------------------|--0------------------|---------------------|

---------------------|---------------------|---------------------|
--5------------------|----------------3----|----------------3----|
---------4------5----|--4------5-----------|--4------5-----------|
---------------------|---------------------|---------------------|
--0------------------|---------------------|---------------------|
---------------------|--3------------------|--0------------------|

----------------------|--------------------|--------------------|
--5h6h5h3-------------|--1--------0--------|-----------0--------|
----------------------|--------------------|--2-----------------|
--0-------------------|--------------------|--------------------|
----------------------|--3--------2--------|--0--------2--------|
----------------------|--------------------|--------------------|

-----------------0----|------------1------0--|-------0--------------|
--3---------3---------|--1-------------------|--3---------1---------|
-------2--------------|-------2--------------|-----------------2----|
--0-------------------|------------0---------|----------------------|
-----------------0----|----------------------|-------0--------------|
----------------------|----------------------|----------------------|

--1------0-------0----|------------1------0--|-------5--------5----|
------------3---------|--1-------------------|--3------------------|
----------------------|-------2--------------|---------------------|
--0-------------------|------------0---------|-------3--------3----|
-----------------0----|----------------------|---------------------|
----------------------|----------------------|---------------------|

--7-----------------|-----------1--0h-1-------|--------------------|
---------------3----|--------3-----------3----|--------------------|
--------------------|-----2-------------------|--------------------|
--5------------0----|--0----------------------|------3--------3----|
--------------------|-------------------------|--------------------|
--------------------|-------------------------|--------------------|

---------------------|------------------------|-----------------0----|
---------------------|------------------------|--3---------3---------|
---------------------|------------------------|-------2--------------|
--5--------5----0----|------0----0------------|--0-------------------|
---------------------|------------------------|-----------------0----|
---------------------|------------------------|----------------------|

------------1------0--|-------0--------------|--1------0-------0----|
--1-------------------|--3---------1---------|------------3---------|
-------2--------------|-----------------2----|----------------------|
------------0---------|----------------------|--0-------------------|
----------------------|-------0--------------|-----------------0----|
----------------------|----------------------|----------------------|

------------1------0--|-------5--------5----|--7-----------------|
--1-------------------|--3------------------|---------------3----|
-------2--------------|---------------------|--------------------|
------------0---------|-------3--------3----|--5------------0----|
----------------------|---------------------|--------------------|
----------------------|---------------------|--------------------|

-----------1--0h-1-------|--------------------|--------------------|
--------3-----------3----|--------------------|--------------------|
-----2-------------------|--------------------|--------------------|
--0----------------------|------3--------3----|--5-----------------|
-------------------------|--------------------|---------------3----|
-------------------------|--------------------|--------------------|

----------------------|----------------------|-----------------------|
----------------------|------------1---------|--0h-1-----------------|
--0--------------0----|-----------------2----|--------2--------------|
-------2--------------|--0-------------------|-------------2---------|
------------2---------|-------0--------------|------------------3----|
----------------------|----------------------|-----------------------|

----------------------|----------------------|-----------------------|
----------------------|------------1---------|--0h-1-----------------|
--0--------------0----|-----------------2----|--------2--------------|
-------2--------------|--0-------------------|-------------2---------|
------------2---------|-------0--------------|------------------3----|
----------------------|----------------------|-----------------------|

----------------------|----------------------|-----------------------|
----------------------|------------1---------|--0h-1-----------------|
--0--------------0----|-----------------2----|--------2--------------|
-------2--------------|--0-------------------|-------------2---------|
------------2---------|-------0--------------|------------------3----|
----------------------|----------------------|-----------------------|

----------------------|----------------------|-----------------------|
----------------------|------------1---------|--0h-1-----------------|
--0--------------0----|-----------------2----|--------2--------------|
-------2--------------|--0-------------------|-------------2---------|
------------2---------|-------0--------------|------------------3----|
----------------------|----------------------|-----------------------|

----------------------|----------------------|-----------------------|
----------------------|------------1---------|--0h-1-----------------|
--0--------------0----|-----------------2----|--------2--------------|
-------2--------------|--0-------------------|-------------2---------|
------------2---------|-------0--------------|------------------3----|
----------------------|----------------------|-----------------------|

----------------------|----------------------|-----------------------|
----------------------|------------1---------|--0h-1-----------------|
--0--------------0----|-----------------2----|--------2--------------|
-------2--------------|--0-------------------|-------------2---------|
------------2---------|-------0--------------|-------------2----5----|
----------------------|----------------------|-------------0----3----|

-------------------|----------0--------|------------------|------------------||
-------------------|----------0--------|------------------|------------------||
-------------------|----------0--------|------------------|------------------||
-------------------|----------2--------|------------------|------------------||
----------5--------|----------2--------|------------------|------------------||
-------------------|----------0--------|------------------|------------------||

© Авторские права на тексты, песни, видео и другую представленную информацию принадлежат правообладателям. Аккорды, табы, gtp и тексты песен взяты из открытых источников.
Возрастная категория сайта: 18+
Тексты некоторых песен могут содержать нецензурные выражения, брань.
© 2020 guitar-chords.ru