Hooray for Boobies (2000)
The Bad Touch

This one's kinda easy, but the guitar gets buried in the mix so it's
hard to pick out, but you're mostly strumming chords throughout
anyways so it doesn't matter.

# riff # X2  !play with palm-muting!  /-slide up
E|----------------------------------------------------------------
B|----------------------------------------------------------------
G|------------------------------------3-3-------------------------
D|------------3----------3---5--------------5-3-------3-----------
A|--3-3-3-3-6-----3-6-6---6---3-3h6p3------------3-6----6--3-6/8--
e|----------------------------------------------------------------

# verse # X4  !play all notes X4 palm-muted!
E|------------------
B|------------------
G|------------------
D|--5---8-----------
A|--3---6---8---6---
e|----------6---4---

# chorus # X4  !play all notes X8!
E|------------------
B|------------------
G|--5---8-----------
D|--5---8---8---6---

© Авторские права на тексты, песни, видео и другую представленную информацию принадлежат правообладателям. Аккорды, табы, gtp и тексты песен взяты из открытых источников.
Возрастная категория сайта: 18+
Тексты некоторых песен могут содержать нецензурные выражения, брань.
© 2020 guitar-chords.ru