Anya

--------------------------------------------------------------
-5-6---5------------------------------------------------------
-----7-----5-7-4-5------4-5p4---4---4-5p4---------------------
----------------------7-------7---5-------5-7-----------------
--------------------7-----------------------------------------
--------------------------------------------------------------
At the end of the second time through this riff, at the *,
play a G  chord followed by an E  minor.
then play these quickly (2x)
---------------------------
---------------------------
--2--4--5---2--4--5--------
--2--4--5---2--4--5--------
--0--0--0---0--0--0--------
---------------------------
The chords for the verses are as follows:
---------------------3---------------------------
---------------------3---------------------------
-2--5--7--2----2--5--4---------------------------
-2--5--7--2----2--5--5---------------------------
-0--0--0--0----0--3--5---------------------------
---------------------3---------------------------
then:
--------------------------------------
--------------------------------------
---9-10-7-9------------9-10-7-9-------
---9-10-7-9------------9-10-7-9-------
--------------------------------------
-0----------0--0--0--0----------------


© Авторские права на тексты, песни, видео и другую представленную информацию принадлежат правообладателям. Аккорды, табы, gtp и тексты песен взяты из открытых источников.
Возрастная категория сайта: 18+
Тексты некоторых песен могут содержать нецензурные выражения, брань.
© 2020 guitar-chords.ru