это вступление!!!!

E||----------|--------12--12h-13--12--10--|
B||----------|----------------------------|
G||----------|----------------------------|
D||----------|----------------------------|
A||----------|----------------------------|
E||----------|----------------------------|

--12--10h12-10---------------------------|------------------------|
--------------------13-15-13h15h13-12----|--12--------------------|
--------------------------------------14-|------13----------------|
-----------------------------------------|----------14------------|
-----------------------------------------|------------------------|
-----------------------------------------|------------------------|

--5----------------|--5----------------|-------------------------|
--6----------------|--5----------------|------5-5h6----5---------|
--7----------------|--5----------------|-------------7-----------|
--7----------------|--7----------------|----7--------------------|
--5----------------|--7----------------|--0----------------------|
--x----------------|--5----------------|-------------------------|

------------------------------------|------------------------------|
------------------------------------|------------------------------|
-----5-7-5h7h5h7-5----4h5h4---4-5---|----------4--4--5--5h4-5h4----|
---7------------------------7-------|-------7-------------------7--|
------------------------------------|----7-------------------------|
------------------------------------|------------------------------|

-----------------------|----------------------------------|
-----------------------|-------------------5--------------|
--4--------------4--5--|--4~-------------4---4-2-4-5-4-5--|
--5--------6--7--------|-------7--6----2------------------|
--5--------------------|-------------0--------------------|
--3--------------------|----------------------------------|

------------------5-------|--1-----------0-----------|
--------------------5---5-|--------3-----------1-----|
----------------5-----5---|-----2-----2-----2-----2--|
--------------7-----------|--0-----------------------|
------------7-------------|--------------3-----------|
----------5---------------|--------------------------|

--------------------------|------------------------3-7-3---------|
--3-----0-----1--------0--|--1--0-----0--------0-3-------3-0-----|
--------------------2-----|--------2---------0---------------0---|
-----2-----2-----2--------|----------------0-------------------0-|
--2-----------0-----------|--------------------------------------|
--------------------------|--------------3-----------------------|

----------3--1-3-1-3-1-0---|--0------------------------------------------|
-------------------------3-|-----0-1-3-1-0-------------------------------|
---------------------------|---------------1-2-4-2-1---------------------|
---------------------------|-------------------------0-2-3-2-0-----------|
---------------------------|-----------------------------------0-2-3-2-0-|
---------------------------|---------------------------------------------|

-----0-0-0------------|----||
-----0-0-0------------|----||
-----1-1-1------------|----||
-----2-2-2------------|----||
-----2-2-2------------|----||
--0-------------------|----||

© Авторские права на тексты, песни, видео и другую представленную информацию принадлежат правообладателям. Аккорды, табы, gtp и тексты песен взяты из открытых источников.
Возрастная категория сайта: 18+
Тексты некоторых песен могут содержать нецензурные выражения, брань.
© 2020 guitar-chords.ru