"Perfect Strangers" (1984)
Gypsy's Kiss
(Blackmore/Gillan/Glover/)

|---------------|-------------------|---5h6p5-----------|--------------|
|---------------|-------------------|-8-------8-6-------|-4h6p4--------|
|-------5-7-6-5-|-6h7p6-5-----------|-------------8-7-5-|-------5-4-5~-|
|-5-7-8---------|---------8-7-5-7-8-|-------------------|--------------|
|---------------|-------------------|-------------------|--------------|
|---------------|-------------------|-------------------|--------------|
                                      sweep
|---------------|-------------------|-------10-------------|
|---------------|-------------------|-----10---13-11-10----|
|---2---2h5p2---|-5h7p5----7h8p7----|---11--------------12-|
|-4---4-------4-|-------7--------10-|-12-------------------|
|---------------|-------------------|----------------------|
|---------------|-------------------|----------------------|

|-------------------------------|---------------|-------------------|
|-11-13p11p10-------------------|-------1-3p2p1-|-2h3p2p1-----------|
|-------------12-11-10----------|-0-2-3---------|---------3-2-0-2-3-|
|----------------------12-11-10-|---------------|-------------------|
|-------------------------------|---------------|-------------------|
|-------------------------------|---------------|-------------------|

|-3-5-6-5-3---------|--------------|---------------|-------------------|
|-----------6-------|-4h6p4--------|---------------|-------------------|
|-------------8p7p5-|-------5-4-5~-|---2---2h5p2---|-5h7p5----7h8p7----|
|-------------------|--------------|-4---4-------4-|-------7--------10-|
|-------------------|--------------|---------------|-------------------|
|-------------------|--------------|---------------|-------------------|

|-10-8--------------|---------------------|
|------11-10-8------|---------------------|
|--------------11-8-|-7-6-5-----5p3-------|
|-------------------|-------8-5-----5-3-5-|
|-------------------|---------------------|
|-------------------|---------------------|

Insert bad guitar solo here (I don't like his solos on this song)
second classical bit (the open e's are in brackets because I'm not sure
if Ritchie plays them, but Jon does (I think))

||--8p5p(0)--12p8p(0)-|-8p5p(0)--12p8p(0)-|-13p12p10-----------||
||o-------------------|-------------------|----------13p12p10-o||
||--------------------|-------------------|--------------------||
||--------------------|-------------------|--------------------||
||o-------------------|-------------------|-------------------o||
||--------------------|-------------------|--------------------||

D'oh! I forgot about this bit, play it after the above every second time (?)

|-8p5---8p5---8p5---8p5---8p5-8p5-|-7p4---7p4---7p4---7p4---7p4-7p4-|
|-----5-----5-----5-----5---------|-----5-----5-----5-----5---------|
|---------------------------------|---------------------------------|
|---------------------------------|---------------------------------|
|---------------------------------|---------------------------------|
|---------------------------------|---------------------------------|


© Авторские права на тексты, песни, видео и другую представленную информацию принадлежат правообладателям. Аккорды, табы, gtp и тексты песен взяты из открытых источников.
Возрастная категория сайта: 18+
Тексты некоторых песен могут содержать нецензурные выражения, брань.
© 2020 guitar-chords.ru