Инструмент: Гитара (6-ти струнная) поменять
Строй: Standart (E A D G B E) поменять
Без каподастра поменять

INTRO:        
Riff 1 (Acoustic Guitar)
                                   Dm                                         Dm 
------------------------------------5------------------------------------------5
-------6--------------------------6------6---------------------------------6
-----7---------9-5----------------7-----7----------9-5--------------5-7~~--7
---7------7-5------7---7-5------7----7------7-5-------7-----7-5--------7
-5--------------------8-----7-5-5---5---------------------8~~--------------5
--------------------------------------------------------------------------------

VERSE:        
Dm               C        B 
While you were out... the message says
Dm               C      B 
You left a number and I tried to call
Dm                     C 
But they wrote it down
    B                      Dm     C 
in a perfect Spanish scrawl
    B 
in a perfect Spanish scrawl

Riff 1

VERSE:        
Dm       C      B 
Yet again  I'm missing you
Dm           C        B 
King size bed  (in a) hotel someplace
Dm               C 
I hear your name
     B          Dm   C 
I see your face
     B 
I see your face

Riff 2 (harmonics with the indicative finger of right hand***)
--------------------------------------------------------------------------------
-------6-----------------------------------------6--------------------------
-----7------------9-5--------------------------7---------9-5----------5-7~~-
---7--------7-5--------7------7-5----------7------7-5-----7----7-5------
-5-------------------------8--------7-5---5-------------------8~~-----------
--------------------------------------------------------------------------------

CHORUS:        
Riff 3 (2X)
        P.M.....       P.M.  P.M.....           P.M.....          P.M.
--------------------------------------------------------------------------------
--------------------------------------------------------------------------------
------------------3~~-3-----3---------------------------------------------------
------------------3-3-3-3-3-3-3-3-3--5-5------------7-7--------/8-8/-
-------3-------3-----------------------3-3--5---------5-5--5-----/6-6~~/-
-12---1-1-1-1-1-------------------------------3-3-3-3-3---------3-3-3----------

(The) back street dolls and the side door of johnnies
The wide eyed the boys with their bags full of money
Back in the alley going bang to the wall
Tied to tail of a midnight crawl
Heaven wouldn't be high I know
if the times gone by hadn't been so low
The best laid plans come apart at the seams
and shatter all my dreams

VERSE:        
Sometimes I feel like...
Dm       C        B 
Screaming close my eyes
Dm                 C            B 
It's time like this my head goes down
Dm                        C 
and the only thing I know
       B                Dm  C 
is the name of this town
      B 
is the name of town

(Piano to Guitar)
--------------------------------------------------------------------------------
-------6--5-----------------5-6-5-------------------------------------------
---7-9--------7-5--7-9-7-----------7-5-7~~----------------------------------
-7------------------------------------------------------------------------------
--------------------------------------------------------------------------------
--------------------------------------------------------------------------------

VERSE:        
Dm       C        B 
Yet again I'm missing you
Dm           C        B 
wonґt be long O' coming home
Dm                      C 
Until that distant time
B                 Dm   C 
I'll be moving on
B 
I'll be moving on

Riff 2 (with some variations)
Riff 3 (Chorus) 2X

Solo 1: (some parts isnґt correct - I improvise)
--------------------------------------------------------------------------------
--------------------------------------------------------------------------------
--------------------------------------------------------------------------------
------------13-15(17)RB-15-(17)RB-15--12-14(16)RB---------------------------
-10-12-13--------------------------------------------15-12-15(17)RB-15(17)RB~-
--------------------------------------------------------------------------------

--------------------------------------------------------------------------------
--------------------------------------------------------------------------------
-------------------------------------17(19)--12p10-12h14-12--15-------------
-----------------------------------------------------------------14(16)RB-14/12-
-15-12--------------------------------------------------------------------------
--------15-13-10~~---15-17-18(20)/----------------------------------------------

----------------------------------------------------------10-11-1215(17)RB-----
-------------------------------------------------10-11-12-----------------------
----------------------------------------10-11-12--------------------------------
-10-12-10----------------------10-11-12-----------------------------------------
----------12-10/8/5~~10-11-12--------------------------------------------------
--------------------------------------------------------------------------------
                            P.M..
-15(17)~~-15p14-15p14-----------------------------------------------------------
----------------------15~~---------15(17)-15-13-15-13---------------------------
------------------------------------------------------14-12---------------------
----------------------------13-15---------------------------15-12~~--12-14-15---
--------------------------------------------------------------------------------
--------------------------------------------------------------------------------

-------------------------------------------------12-14-15-14-15-17(20)RB--------
----------------------------------------12-13-15--------------------------------
-12-14-15-14-12----------------12-14-15-----------------------------------------
----------------15-14-12-14-15--------------------------------------------------
--------------------------------------------------------------------------------
--------------------------------------------------------------------------------
                                              P.H.   T        T         T
-20(23)RB-20-19-18-17--19-----------17(19)-15~~--17-14h15-17-14h15-17-14h---
---------------------------17(19)-15~~------------------------------------------
--------------------------------------------------------------------------------
--------------------------------------------------------------------------------
--------------------------------------------------------------------------------
--------------------------------------------------------------------------------
   T        T        T        T        T        T        T        T
15-17-14h15-17-14h15-17-14h15-17-14h15-17-14h15-17-14h15-17-14h15-1721(23)RB/--
--------------------------------------------------------------------------------
--------------------------------------------------------------------------------
--------------------------------------------------------------------------------
--------------------------------------------------------------------------------
--------------------------------------------------------------------------------
(harmonics with the indicative finger of right hand***)
--------------------------------------------------------------------------------
-------6------------------------------------------11------------------------
-----7-----------9-5---------------------------12--------------14-10--------
---7-------7-5-------7-----7-5------------12---------12-10~~---------12-----
-5-----------------------8-------7-5---10-------------------------------13~-
--------------------------------------------------------------------------------

--------------------------------------------------------------------------------
--------------------------------------------------------------------------------
---------12(14)RB-12~~-12/-----------------------------------------------------
-12-10~~------------------------------------------------------------------------
--------------------------------------------------------------------------------
--------------------------------------------------------------------------------

Riff 3 (4X)
Final solo:(use harmonics (P.H.) in some notes, just heard) - not completely
--------------------------------------------------------------------------------
----------11---------------------------------------------------11-----------
-----------------------14-10~~--------------------------------------------------
-------12------12-10---------12------12-10----------------12------12-10~~---
----12----------------------------13---------12-10-----10-------------------
-10-----------------------------------------------------10----------------------

--------------------------------------------------------------------------------
--------------------------------------------------------------------------------
-12(14)RB-10------------------11-12(14)-11--------18------------------------
---------------12p10-----12-10--------------------17--16--------------------
---------------------13~~-------------------------15----------------------------
-------------------------------------------------------------------------------

Notes:
**: artificial harmonic. To do this, do like this: play note as usual, but while youґre playing this, with the indicative finger
of the rigth hand, you will touch the string slightly with your indicatve finger in the fret that is one octave up**.
* Octave up (example): fret 5 (A string) - one octave up: fret 17 (A string), that is to say, octave up is 12 frets up from the note.            

© Авторские права на тексты, песни, видео и другую представленную информацию принадлежат правообладателям. Аккорды, табы, gtp и тексты песен взяты из открытых источников.
Возрастная категория сайта: 18+
Тексты некоторых песен могут содержать нецензурные выражения, брань.
© 2021 guitar-chords.ru