"Purpendicular" (1996)
Sometimes I Feel Like Screaming
(Gillan/Glover/Morse/Lord/Paice)

solo- and intro-chords:    d   Bb   C   a   Bb   C   G 
verse:    d   d   d4   d   a   C 
          d   d   d4   d   a 
chorus:    F   Bb   F   C   Ab   Db   Ab   Eb    (power-chords with full
                                                 distortion)

first solo:    E|------12-13-----------|----------------------|
B|---10-----------10----|---13/17-13-----------|
G|-------------------12-|----------------12-10-|
D|12--------------------|----------------------|
A|----------------------|----------------------|
E|----------------------|----------------------|

E|------------------------|-------------10-12-|------12-13------------|
B|------------------------|----------10-------|---10------------10----|
G|----14-12----9/10-9-----|-------------------|--------------10----12-|
D|--------------------12~-|-------------------|12---------------------|
A|------------------------|-------------------|-----------------------|
E|------------------------|-------------------|-----------------------|

E|-------------------------|----------------------|----------------|
B|-----13/17-13------------|----------------13-15~|~~~-------------|
G|-------------------12-10-|-----14-12----------0-|----------------|
D|--14------------14-------|--12---------14-------|----------------|
A|-------------------------|----------------------|----------------|
E|-------------------------|----------------------|----------------|

second solo:    E|------12-13-----------|----------------------|
B|---10-----------10----|---13/17-13-----------|
G|-------------------12-|----------------12-10-|
D|12--------------------|----------------------|
A|----------------------|----------------------|
E|----------------------|----------------------|

E|------------------------|----------------------|
B|------------------------|-------13-12----15-12-|
G|----14-12----9/10-9-----|----12-------12-------|
D|--------------------12~-|----------------------|
A|------------------------|----------------------|
E|------------------------|----------------------|

E|------12-13------------|-------------------------|
B|---10------------10----|-----13/17-13------------|
G|--------------10----12-|-------------------12-10-|
D|12---------------------|--14------------14-------|
A|-----------------------|-------------------------|
E|-----------------------|-------------------------|

E|--------------------------|-------------------|
B|-----13/15\13----17/18\17-|15~~~--------------|
G|--------------------------|-0-----------------|
D|--12----------------------|-------------------|
A|--------------------------|-------------------|
E|--------------------------|-------------------|

main solo:    E|-------------------------------|----------------------|
B|-------------------------------|----------------------|
G|-----------------10--/12--/12--|10~------------9/10---|
D|-------10-10h12----------------|-----------12---------|
A|10h12--------------------------|----------------------|
E|-------------------------------|----------------------|

E|-------------------|-----------------------|--------------------|
B|-------------------|-----------------------|--------------------|
G|9~------------7p5--|/7-/7------------------|---------------7


© Авторские права на тексты, песни, видео и другую представленную информацию принадлежат правообладателям. Аккорды, табы, gtp и тексты песен взяты из открытых источников.
Возрастная категория сайта: 18+
Тексты некоторых песен могут содержать нецензурные выражения, брань.
© 2020 guitar-chords.ru