#табулатура

    
Memphisto

Nb: The song is in 12/8 time.

Riff 1 (Piano riff 1)
e|-------3---1-------------|
B|-0-1-4---0---3-0-4-0-1---|
G|-----------------------0-|
D|-------------------------|
A|-------------------------|
E|-------------------------|

Riff 2 (Piano riff 2)
e|-----1-4---3-8---7---13-11-|
B|-3-4-----3-----6-----------|
G|-------------------7-------|
D|---------------------------|
A|---------------------------|
E|---------------------------|

Riff 3 (Synth part arranged for guitar)
e|-8------------------------------
B|-8------------------------------
G|-x-(Left hand mute)-------------
D|-10-----------------------------
A|-10-----------------------------
E|-8------------------------------
 |  C5 

Riff 4
e|-4------------------------------
B|-4------------------------------
G|-x-(Left hand mute)-------------
D|-6------------------------------
A|-6------------------------------
E|-4------------------------------
 |  Ab5 

Riff 5
e|-3------------------------------
B|-3------------------------------
G|-x-(Left hand mute)-------------
D|-5------------------------------
A|-5------------------------------
E|-3------------------------------
 |  G5 

Riff 6 (2nd piano riff)
e|-------------------------------------------------------------------
B|-------4---3-4--3-4--3-3-0---4---3-4--3-4--3-1-----4---3-4--3-4--3-
G|-----0---0-----------------0---0---------------2-------------------
D|-0-----------------------------------------------4---4-------------
A|---2---------------------------------------------------------------
E|-------------------------------------------------------------------

e|--------------------------------
B|-4--3-4--3-4--------------------
G|--------------------------------
D|--------------------------------
A|--------------------------------
E|--------------------------------

Riff 7 (2nd synth riff worked out for guitar)
e|--------------------------------
B|--------------------------------
G|-4---5---8---7--*** One bar per chord
D|-4---5---8---7------------------
A|-2---3---6---5------------------
E|--------------------------------
 |  B5  C5  Eb5 D5 

Riff 8 ('Voice' Riff worked out for guitar)
e|--------------------------------
B|--------------------------------
G|-12----10-----8-----------------
D|--------------------------------
A|--------------------------------
E|--------------------------------

How To Play It:
Start off with riff 1 as many times as you like then:
Piano 1 | 1 1 1 1 1 1 2 2 |
Piano 2 | 3       4   5   | and then repeat this a few times...
Then:
Piano 1 | 6      |
Piano 2 | 7      | and then go back to the first riff...
Listen to the record for the exact order :)

© Авторские права на тексты, песни, видео и другую представленную информацию принадлежат правообладателям. Аккорды, табы, gtp и тексты песен взяты из открытых источников.
Возрастная категория сайта: 18+
Тексты некоторых песен могут содержать нецензурные выражения, брань.
© 2020 guitar-chords.ru