Tears In Heaven (Eric Clapton)
Below are my attempt to reproduce the two main riffs in Tears
of Heaven off Eric Clapton's unplugged album. There is really
only one figuring which is a reach which is the A to Esus2.
___________
|_|_|_|_|_|
|_|_1_1_1_1
|_|_|_|_|_|
2_|_|_3_|_|
| | | | 4 |
Play the A  as a partial barre  add other three fingers to construct the Esus2 .
Tears In Heaven (Eric Clapton)

Lick 1: (The Verse)

A     Esus2  F#m    F#m/E      D     A        E 
E ---------------------------------------------------------------------
B ----------2---5-----2---------2---------3-3-2-02---------------------
G ------------2-4-------2-------2-2-------2--------2-------1---2---4---
D ----------2-----2---4---4---------4---0-----2------2-----2-----------
A --------0-----------------4---------4-------0----------2---2-4---5---
E --0-2-4-------4---0-2-------0------------------------0---------0---0-

Would you know my name...

A   Esus2/G# F#m    F#m/E      D     A        E 
E ----------------2-----------------------------------------------------
B ------------2-----5-----------------------3-3-2-0---------------------
G --------------2-------2-----------2-----2-----2----2-------1---2---4--
D ----------2---------2-----4---------2-0-------2------2-----2----------
A --------0-------------------4----4------------0----------2---2-4---5--
E --0-2-4---------4-----2--------0-----------------------0---------0---0

F#m       C#/F    Em/G          F#               Bm       E 
E ---------------------------------------------------------------------
B ---------0--------------------------------0---2----3-----------------
G -----2-2---1------------0-0-2-----3----------------4-4-4---1---------
D -----4-----3-3----------2---------4-4--------------4-----4-2---------
A ---4-----------4------2-----------4---4------------2-------2---------
E -2-------2-1-----1--3-------------2-----2---2---2----------0---------

Lick 2:

C       G   F                     Em    G 
E -----------0-0-------------------------------------------------------
B ---------------3---1-------1---3-0-----3-------0---------------------
G ---------0-------0---2-----2-----0---2---0-0-2-----------------------
D -----------------------2-----0-----0-----2---------------------------
A -0-2-3-3-------2---0-----0---------------2---------------------------
E ---------------------------2-----3---2---0---2-3---------------------

Time will bend your knees...


© Авторские права на тексты, песни, видео и другую представленную информацию принадлежат правообладателям. Аккорды, табы, gtp и тексты песен взяты из открытых источников.
Возрастная категория сайта: 18+
Тексты некоторых песен могут содержать нецензурные выражения, брань.
© 2021 guitar-chords.ru