Intro:        
H     HP 
--|----------------|----------------|----------------|----------------|
--|----232-5---5-2-|---2---2----2---|3---3---3---3---|2---2---2---2---|
--|-------24---4-2-|---2---2----2---|2---2---2---1---|2---2---2---2---|
--|--2-------------|----------------|----------------|----------------|
--|0---------------|----------------|----------------|0-0---0---0---0-|
02|--------4-4---2-|-2---2-0--0---0-|2-2---2-0---0---|----------------|

            |---5/75---------|
2nd guitar  |-------5/75---5-|
part        |-----------4/6--|
            |----------------|
            |----------------|
H     HP                                    H 
--|----------------|----------------|------------0---|----------------|
--|----232-5---5-2-|---2---2----2---|3---3---2-3---0-|--0---2----3----|
--|-------24---4-2-|---2---2----2---|2---2---2-----1-|--1---2----4----|
--|--2-------------|----------------|0-0---0---------|----------------|
--|0---------------|----------------|----------------|--------4/5-----|
02|--------4-4---2-|-2---2-0--0---0-|--------------0-|0---0-----------|

Would you know my name              if I saw you in Heaven

        H 
            |---2-4-45--4-2-0|
2nd guitar  |----------------|
part        |----------------|
            |----------------|
            |----------------|
            |----------------|

HP                                    H 
|----------------|----------------|------------0---|----------------|
|2---232-5---5-2-|---2---2----2---|3---3---2-3---0-|--0---2----3----|
|2------24---4-2-|---2---2----2---|2---2---2-----1-|--1---2----4----|
|----------------|----------------|0-0---0---------|----------------|
|--0-------------|----------------|----------------|--------4/5-----|
|--------4-4---2-|-2---2-0--0---0-|--------------0-|0---0-----------|

Would it be the same              if I saw you in Heaven

|----2-----2-----|----1-----1-----|----0-----0-----|----------------
|--2-----2-----2-|--2-----2-----2-|--3-----3-----3-|----------------
|--2-----2-----2-|--1-----1-----1-|--0-----0-----0-|3---3----4---6--
|----------------|----------------|----------------|4---4----4---6--
|----------------|----------------|----------------|----------------
|2-----2-----2---|1-----1-----1---|0-----0-----0---|--2---2/4-4/6---

I must be    strong            and carry      on      Cause I

|----------------|----------------|
|----3-----3---3-|3-3---3---------|
|----2-----2---2-|2-2---2---------|
|--4-----4-----4-|2-2---2---------|
|2-----2-----2---|----------------|
|----------------|----------------|

know I don't belong here in heaven.........
Before the next verse the part of the 2nd guitar goes like this:

H H HP P 
|----------------|
|----232---------|
|--24---42-------|
|24-------42-----|
|----------------|
|----------------|

Bridge:        
--|----------------|--------2---2---|----------------|--------------|
--|----1-------1---|----1---3---3--2|----2-------2---|----2--1--1---|
--|----0-------0---|----0---2---2--0|----0-------0---|----0--0--0---|
--|--2-------2-----|--2-----0-0-0--0|----0-----0-----|--0----2--2---|
02|3-----3-2-----2-|0---------------|----------------|--------------|
--|----------------|---------------3|--3---3-2-----2-|0------0--2---|

Time can bring you down Time can bend your knees

|----------------|--------2---2---|----------------|--------------|
|----1-------1---|----1---3---3--2|----2---3---3---|0---0---2----3|
|----0-------0---|----0---2---2--0|----0---2---2---|3---3---2----4|
|--2-------2-----|--2-----0-0-0--0|----0-----------|--------------|
|3-----3-2-----2-|0---------------|----------------|----------4/5-|
|----------------|---------------3|--3---3-2-2---2-|0-0---0-------|

time can break your heart  Have you beggin  please beggin please


© Авторские права на тексты, песни, видео и другую представленную информацию принадлежат правообладателям. Аккорды, табы, gtp и тексты песен взяты из открытых источников.
Возрастная категория сайта: 18+
Тексты некоторых песен могут содержать нецензурные выражения, брань.
© 2022 guitar-chords.ru