Acoustic
Tuning: Standard 440
Time: 4/4 72bpm

INTRO/VERSE:    A C#m 
e|-------------9-----5-----------4-----9~~-|
B|-------5-----------------------5---------|
G|----6-----6-----6-----6--6--------6------|
D|-7--------------------------6------------|
A|-0-----------------------4---------------|
E|-----------------------------------------|
I'm so tired of being here
A C#m 
e|-------------7-----5-----------4-----9~~|
B|-------5-----------------------5--------|
G|----6-----6-----6-----6--6--------6-----|
D|-7--------------------------6-----------|
A|-0-----------------------4--------------|
E|----------------------------------------|
suppressed by all of my childish fears
A C#m 
e|-------------9-----5------------4-----9~~-------------------|
B|-------5------------------------5---------------------------|
G|----6-----6-----6-----6---6--------6------------------------|
D|-7---------------------------6------------------------------|
A|-0------------------------4---------------------------------|
E|------------------------------------------------------------|
and if you have to leave I wish that you could just leave
A 
e|-------------9-----5----------------------------------------|
B|-------5----------------------------------------------------|
G|----6-----6-----6-----6-------------------------------------|
D|-7----------------------------------------------------------|
A|-0----------------------------------------------------------|
E|------------------------------------------------------------|
because your presence still lingers here
C#m 
e|------4-----9~~--------------|
B|------5---------------9--10--|
G|6--------6-------------------|
D|---6-------------------------|
A|4----------------------------|
E|-----------------------------|
and it won't leave me alone...

PRE-CHORUS:    F#m C#m F#m 
e|---------------------------------------------------------------|
B|----------------9--10----------------------9--10---------------|
G|---------11------ -----10~~-----------------------------11-----|
D|------11----11---------11~~--------------------------11----11--|
A|---9----------------------------------------------9------------|
E|-----------------------9~~~------------------------------------|
These wounds won't seem to heal

C#m F#m 
e|---------------------------------------------------------------|
B|9--10-----------------9--10--------------9--10-----------------|
G|-------10~~-----------------------11---------------------------|
D|-------11~~--------------------11----11------------------------|
A|----------------------------9----------------------------------|
E|-------9~~~----------------------------------------------------|
This pain is just too real

C#m E 
e|--9--------------------------0-0-0-0-0-0-0-0-|
B|-----9-----------------------9-9-9-9-9-9-9-9-|
G|--------11-------------------9-9-9-9-9-9-9-9-|
D|-----------11----------------9-9-9-9-9-9-9-9-|
A|-----------------------------7-7-7-7-7-7-7-7-|
E|-----------------------------0-0-0-0-0-0-0-0-|
there's just too much that time cannot erase

F#m D E C#m 
CHORUS:        
When you cried I'd wipe away all of your tears
F#m D E C#m 
When you'd scream I'd fight away all of your fears
F#m D E C#m 
And I've held your hand through all of these years
F#m D E A C#m A C#m 
but you still have all of me

A C#m 
VERSE 2:    You used to captivate me by your resonating light
A C#m 
but now I'm bound by the life you left behind
A C#m 
Your face it haunts my once pleasant dreams
A C#m 
your voice it chased away all the sanity in me

PRE-CHORUS

CHORUS

D F#m E D 
I've tried so hard to tell myself that you're gone
F#m C#m 
but though you're still with me
D E F#m D E C#m 
I've been alone all along

CHORUS


© Авторские права на тексты, песни, видео и другую представленную информацию принадлежат правообладателям. Аккорды, табы, gtp и тексты песен взяты из открытых источников.
Возрастная категория сайта: 18+
Тексты некоторых песен могут содержать нецензурные выражения, брань.
© 2021 guitar-chords.ru