Hello, everyone. I have enjoyed many of the transcriptions out there. They
are very helpful. I used previous versions of this posting to form my own
interpretation. So here it goes.
I hear this song a little flat. I basically play Jeff's    transcription,
but one step low, making A's, B's, and E's flat and making F's natural
(I took a guitar class. Doesn't it show?)
I use a "Dropped-D" tuning rather than retuning to E flat. The intro goes
something like this:
The intro=
E|-----------------------------------------------------------------------------
B|---------------------------------------------------------------------6-------
G|------------------------------------------------8-----------------8-----8----
D|--------8--6--8--6--8-----8--6--8--6--8-----8----6--8--6--8--6-------------
A|------8----------------8------------------8----------------------------------
E|------------------------------------------------------------------------------

Verse 1:
Since I'm putting down all of the true things around but I like it
Handed down the crown, given the jewels and the answers of May
The thought of being ousted    comes and goes   comes and goes
E|------------------------------------------------------------|-  (repeat twice)
B|--3--3--3--3----6--6--6--6---------------------------------|-
G|--3--3--3--3----6--6--6--6---------------------------------|-
D|--3--3--3--3----6--6--6--6----3--3--3--3----6--6--6--6----|-
A|--1--1--1--1----4--4--4--4----3--3--3--3----6--6--6--6----|-
E|------------------------------3--3--3--3----6--6--6--6----|-
     When I think     about it,          the wind blows     Hate it!    Hate it!      Hate it!
E|-------------------------------------------------------------------------
B|--3--3--3--3---6--6--6--6---------------------------------------------
G|--3--3--3--3---6--6--6--6-----------------------------------------------
D|--3--3--3--3---6--6--6--6---3--3--3--3----6--6--6---1--1--1---3--3--3-
A|--1--1--1--1---4--4--4--4---3--3--3--3----6--6--6---1--1--1---3--3--3--
E|----------------------------3--3--3--3----6--6--6---1--1--1---3--3--3---
         Hate it!     Hate it!      Hate it!      Hate it!
E|------------------------------------------------------
B|------------------------------------------------------
G|--6--6--6---1--1--1---3--3--3--6--6--6----1-1-1-1---
D|--6--6--6---1--1--1---3--3--3--6--6--6----1-1-1-1---
A|--6--6--6---1--1--1---3--3--3--6--6--6----1-1-1-1---

Intro played

Verse 2:
Run me out of town, somewhere a move might intended a gown at
Pissed at all the bowels, always the blues and a delicate smile
Miss at all the sideways, gull and noun, gull and noun
Chills and petty band-aids, wrapped around  Hate it...

Bridge:
                    Good Grief
                                                       Good Grief
E|-----------------------------------------------------------------------------
B|-----------------------------------------------------------------------------
G|------------------------------------------------------------------------------
D|---6--8--6--8--6--8--6--8---3--3--3--3--3---6--8--6--8--6--8--6--8----
A|---6--8--6--8--6--8--6--8---3--3--3--3--3---6--8--6--8--6--8--6--8-----
E|---6--8--6--8--6--8--6--8---3--3--3--3--3---6--8--6--8--6--8--6--8-------

E|-----------------------------------------------------------------------------
B|-----------------------------------------------------------------------------
G|------------------------------------------------------------------------------
D|----3--3--3--3--6--6--6--6--1--1--1--1---3--3--3--3--6--6--6--6--1--1--1--1--
A|----3--3--3--3--6--6--6--6--1--1--1--1---3--3--3--3--6--6--6--6--1--1--1--1--
E|----3--3--3--3--6--6--6--6--1--1--1--1---3--3--3--3--6--6--6--6--1--1--1--1--

Repeat Verse 1

And that's about it. It's a little different. I think it sounds cool this
way, and it's easy enough for me to play while singing. You can try without
the "Dropped-D" but the bridge is a lot harder. Have fun.


© Авторские права на тексты, песни, видео и другую представленную информацию принадлежат правообладателям. Аккорды, табы, gtp и тексты песен взяты из открытых источников.
Возрастная категория сайта: 18+
Тексты некоторых песен могут содержать нецензурные выражения, брань.
© 2021 guitar-chords.ru