The tab of this song is in normal tuning it was tabbed by Gabriel Jessee
the song was written by Dave Ghrol and this is correct.

Tab notation
Slide=/
Vibrato=~~~
Pull of=p

INTRO
GUITAR 1
                                    LET NOTES RING
1|-----------------------------------------------------------------------
2|------1-1-1-1-1---1-1-1-1-1-----------4~~--6--4--6P4-------------------
3|------3-1-1-3-1---3-1-1-3-1---1---2/5-5-5--------------------------
4|----3-----------3-----------3---3--------------------------------------
5|-----------------------------------------------------------------------
6|----------------------------------------------------------------------- \
                                                                           \
INTRO                                                                       } overlaping
GUITAR 2                                                                   /
1|----------------------------------------------------------------------- /
2|-----------------------------------------------------------------------
3|------------------------------6-6-6-6-6-6-6-6-6-6-6-6------------------
4|----3-3-3-3-3-3-3-3-3-3-3-3-3-6-6-6-6-6-6-6-6-6-6-6-6------------------
5|----3-3-3-3-3-3-3-3-3-3-3-3-3-4-4-4-4-4-4-4-4-4-4-4-4------------------
6|-13/1-1-1-1-1-1-1-1-1-1-1-1-1------------------------------------------

VERSE BOTH GUITARS
    SINCE I'V PUTTING  DOWN        ALL THE TRUE THINGS AROUND BUT I LIKE IT
    I HANDED DOWN THE CROWN        GIVEN JEWELS AND THE ANSWERS OF  MAY
    THE THOUGHT OF BEING OUSTED          COMES AND GOES         COMES AND GOES
1|---------------------------------------------------------------------------------------
2|---------------------------------------------------------------------------------------
3|--3-3-3-3-3-3-3-3-3/6-6-6-6-6-6-6-6-6-6------------------------------------------------
4|--3-3-3-3-3-3-3-3-3/6-6-6-6-6-6-6-6-6-6-3-3-3-3-3-3-3-3-3-3-3-3-3-6-6-6-6-6-6-6-6-6-6-6
5|--1-1-1-1-1-1-1-1-1/4-4-4-4-4-4-4-4-4-4-3-3-3-3-3-3-3-3-3-3-3-3-3-6-6-6-6-6-6-6-6-6-6-6
6|----------------------------------------1-1-1-1-1-1-1-1-1-1-1-1-1-4-4-4-4-4-4-4-4-4-4-4
   WHEN I THINK     ABOUT         IT     THE    WIND     BLOW
1|-----------------------------------------------------------------------
2|-----------------------------------------------------------------------
3|-3-3-3-3-3-3-3-3-3/6-6-6-6-6-6-6-6-6-6---------------------------------
4|-3-3-3-3-3-3-3-3-3/6-6-6-6-6-6-6-6-6-6-3-3-3-3-3-3-3-3-3-3-3-3-3-------
5|-1-1-1-1-1-1-1-1-1/4-4-4-4-4-4-4-4-4-4-3-3-3-3-3-3-3-3-3-3-3-3-3-------
6|---------------------------------------1-1-1-1-1-1-1-1-1-1-1-1-1-------
  CHORUS BOTH GUITARS
                HATE IT             HATE IT             HATE IT    HATE IT
1|---------------------------------------------------------------------------------
2|---------------------------------------------------------------------------------
3|----------------------8-8-8-8-8-8-8-8-8-8----------------------------------------
4|--6-6-6-6-6-6-6-6-6-6-8-8-8-8-8-8-8-8-8-8-3-3-3-3-3-3-3-3-3-3/6-6-6-6-6-6-6-6-6-6
5|--6-6-6-6-6-6-6-6-6-6-6-6-6-6-6-6-6-6-6-6-3-3-3-3-3-3-3-3-3-3/6-6-6-6-6-6-6-6-6-6
6|--4-4-4-4-4-4-4-4-4-4---------------------1-1-1-1-1-1-1-1-1-1/4-4-4-4-4-4-4-4-4-4
                HATE IT             HATE IT             HATE IT
1|-----------------------------------------------------------------------------------
2|-----------------------------------------------------------------------------------
3|--8-8-8-8-8-8-8-8-8-8-----------------------------------------8/7/8/7/8/7/8/7/8/7/8
4|--8-8-8-8-8-8-8-8-8-8-3-3-3-3-3-3-3-3-3-3/6-6-6-6-6-6-6-6-6-6-8/7/8/7/8/7/8/7/8/7/8
5|--6-6-6-6-6-6-6-6-6-6-3-3-3-3-3-3-3-3-3-3/6-6-6-6-6-6-6-6-6-6-6/5/6/5/6/5/6/5/6/5/6
6|----------------------1-1-1-1-1-1-1-1-1-1/4-4-4-4-4-4-4-4-4-4----------------------

INTRO AGAIN

VERSE BOTH GUITARS
    RUN     ME        TOWN        SOMEWHERE A MOVE MIGHT INTENED    A GOWN AT
    PISSED  AT  ALL THE BOWELS    ALWAYS THE BLUES        AND DELICATED SMILE
    MISSED  ALL OF THE   SIDEWAYS         GULL AND   NOUN         GULL AND NOUN
1|---------------------------------------------------------------------------------------
2|---------------------------------------------------------------------------------------
3|--3-3-3-3-3-3-3-3-3/6-6-6-6-6-6-6-6-6-6------------------------------------------------
4|--3-3-3-3-3-3-3-3-3/6-6-6-6-6-6-6-6-6-6-3-3-3-3-3-3-3-3-3-3-3-3-3-6-6-6-6-6-6-6-6-6-6-6
5|--1-1-1-1-1-1-1-1-1/4-4-4-4-4-4-4-4-4-4-3-3-3-3-3-3-3-3-3-3-3-3-3-6-6-6-6-6-6-6-6-6-6-6
6|----------------------------------------1-1-1-1-1-1-1-1-1-1-1-1-1-4-4-4-4-4-4-4-4-4-4-4
   CHILLS AND PETTY BAND-AIDE                WRAPPED  ARUOND
1|-----------------------------------------------------------------------
2|-----------------------------------------------------------------------
3|-3-3-3-3-3-3-3-3-3/6-6-6-6-6-6-6-6-6-6---------------------------------
4|-3-3-3-3-3-3-3-3-3/6-6-6-6-6-6-6-6-6-6-3-3-3-3-3-3-3-3-3-3-3-3-3-------
5|-1-1-1-1-1-1-1-1-1/4-4-4-4-4-4-4-4-4-4-3-3-3-3-3-3-3-3-3-3-3-3-3-------
6|---------------------------------------1-1-1-1-1-1-1-1-1-1-1-1-1-------
  CHORUS BOTH GUITARS
                HATE IT             HATE IT             HATE IT             HATE IT
1|---------------------------------------------------------------------------------
2|---------------------------------------------------------------------------------
3|----------------------8-8-8-8-8-8-8-8-8-8----------------------------------------
4|--6-6-6-6-6-6-6-6-6-6-8-8-8-8-8-8-8-8-8-8-3-3-3-3-3-3-3-3-3-3/6-6-6-6-6-6-6-6-6-6
5|--6-6-6-6-6-6-6-6-6-6-6-6-6-6-6-6-6-6-6-6-3-3-3-3-3-3-3-3-3-3/6-6-6-6-6-6-6-6-6-6
6|--4-4-4-4-4-4-4-4-4-4---------------------1-1-1-1-1-1-1-1-1-1/4-4-4-4-4-4-4-4-4-4
                HATE IT             HATE IT             HATE IT
1|-----------------------------------------------------------------------------------
2|-----------------------------------------------------------------------------------
3|--8-8-8-8-8-8-8-8-8-8-----------------------------------------8/7/8/7/8/7/8/7/8/7/8
4|--8-8-8-8-8-8-8-8-8-8-3-3-3-3-3-3-3-3-3-3/6-6-6-6-6-6-6-6-6-6-8/7/8/7/8/7/8/7/8/7/8
5|--6-6-6-6-6-6-6-6-6-6-3-3-3-3-3-3-3-3-3-3/6-6-6-6-6-6-6-6-6-6-6/5/6/5/6/5/6/5/6/5/6
6|----------------------1-1-1-1-1-1-1-1-1-1/4-4-4-4-4-4-4-4-4-4----------------------

BRIDGE GUITAR 1
    GOOD GREIF         GOOD GREIF
1|------------------------------------------
2|------------------------------------------
3|------------------------------------------ \
4|-----6---6---6---6-7-----6---6---6---6-7--  \ PLAY GUITAR ONES PART TWICE
5|--/8---8---8---8---9--/8---8---8---8---9--   \ PLAY GUITAR TWOS PART ONCE
6|------------------------------------------    \ WHEN GUITAR 1 PLAYS ITS PART
                                                 } THE 2ND TIME GUITAR 2 PLAYS AN F CHORD
BRIDGE GUITAR 2                                 /   UNDER GUITAR 1 THEN WHEN GUITAR ONES
                                               /     PART IS OVER THEY BOTH PLAY F ,G# ,D#  TWICE
                                              /       THEN PLAY THE INTRO AGAIN DO ANOTHER VERSE
                                             /         THEN DO ANOTHER CHORUS AND END ON THESE NOTES
                                            /                                        1|-------
1|------------------------------------------------------------------------------     2|-------
2|------------------------------------------------------------------------------     3|-------
3|--1-1-1-1-1-1-1-1-1-1-1-1-1-1-1-1-1-1-1-1-1-1-1-1-1-1-1-1-1-1-1-1-1-1-1-1-1-1-     4|--6
4|--3-3-3-3-3-3-3-3-3-3-3-3-3-3-3-3-3-3-3-3-3-3-3-3-3-3-3-3-3-3-3-3-3-3-3-3-3-3-     5|--8
5|--3-3-3-3-3-3-3-3-3-3-3-3-3-3-3-3-3-3-3-3-3-3-3-3-3-3-3-3-3-3-3-3-3-3-3-3-3-3-     6|-------
6|--1-1-1-1-1-1-1-1-1-1-1-1-1-1-1-1-1-1-1-1-1-1-1-1-1-1-1-1-1-1-1-1-1-1-1-1-1-1-

© Авторские права на тексты, песни, видео и другую представленную информацию принадлежат правообладателям. Аккорды, табы, gtp и тексты песен взяты из открытых источников.
Возрастная категория сайта: 18+
Тексты некоторых песен могут содержать нецензурные выражения, брань.
© 2021 guitar-chords.ru