The other version of this song is fine except for one thing.
You may notice on the video that Dave's hand isn't moving that much.
If you tune your guitar up one half-step or use a capo on the first fret,
the song is way easier to play.
Note: The song "Butterflies" is also in this tuning.

Intro/Pre-Chorus
(with guitar tuned one half-step up)
  F#          D           B 
E|------------------------------|----
B|-------X-X--3--3--3-----------|---- Repeat...many times
G|-------X-X--2--2--2-----4--4--|----
D|4--4---X-X--0--0--0--0--4--4--|----
A|4--4---X-X-----------0--2--2--|----
E|2--2--------------------------|----
  I    don't      owe     you ....

Verse
    F#             E              Eb 
E|--------------|--------------|--------------|----
B|--7--7--7--7--|--5--5--5--5--|--4--4--4--4--|---- Repeat for a little while
G|--X--X--X--X--|--X--X--X--X--|--X--X--X--X--|----
D|--8--8--9--8--|--6--6--6--6--|--5--5--5--5--|----
A|--9--9--9--9--|--7--7--7--7--|--6--6--6--6--|----
E|--------------|--------------|--------------|----
   I thought i    knew all it    took to bother...

Interlude
    A              F#             B7 
E|--------------|--------------|--2--2--2--2--|--
B|--------------|--------------|--0--0--0--0--|-- Repeat once
G|--2--2--2--2--|--------------|--2--2--2--2--|--
D|--2--2--2--2--|--4--4--4--4--|--1--1--1--1--|--
A|--0--0--0--0--|--4--4--4--4--|--2--2--2--2--|--
E|--------------|--2--2--2--2--|--------------|--
    I've taken     all and I've   endured ....

Pre-chorus

Chorus
    D              E              F#             C# 
E|--------------|--0--0--0--0--|--------------|--------------|--
B|--3--3--3--3--|--0--0--0--0--|--------------|--------------|-- Repeat...
G|--2--2--2--2--|--1--1--1--1--|--------------|--6--6--6--6--|--
D|--0--0--0--0--|--2--2--2--2--|--4--4--4--4--|--6--6--6--6--|--
A|--------------|--2--2--2--2--|--4--4--4--4--|--4--4--4--4--|--
E|--------------|--0--0--0--0--|--2--2--2--2--|--------------|--
  I'll stick around...


© Авторские права на тексты, песни, видео и другую представленную информацию принадлежат правообладателям. Аккорды, табы, gtp и тексты песен взяты из открытых источников.
Возрастная категория сайта: 18+
Тексты некоторых песен могут содержать нецензурные выражения, брань.
© 2022 guitar-chords.ru