Verse (2x):
-------------------------
-------------------------
--7-7---5-5---4-4-4---5---4-4---5-5---7-7-
--8-8---6-6---6-6-6---6---6-6---6-6---8-8-
--8-8---6-6---6-6-6---6---6-6---6-6---8-8-
------------------------

Pre-Chorus (2x):
------------------------
------------------------
--3-3-3---5-5-5---(-3-)---
--4-4-4---5-5-5---(-3-)---
--4-4-4---3-3-3---(-1-)---
--2-2-2---------------

During PreChorus, Guitar #2 plays:
------------------------
------------------------
--5-5-5---3-3-3---
--5-5-5---3-3-3---
--3-3-3---1-1-1---
------------------------

Intro/Chorus (2x):
------------------------
------------------------
--6-6---3-3---5-5-5---
--5-5---3-3---5-5-5---
--5-5---1-1---3-3-3---
--3-3-----------------

During Chorus, Guitar #2 plays:
-----------------------
-----8----8------8-8---
--9-9-9-9-9-9-9-9---
--9-9-9-9-9-9-9-9---
--7-7-7-7-7-7-7-7---

© Авторские права на тексты, песни, видео и другую представленную информацию принадлежат правообладателям. Аккорды, табы, gtp и тексты песен взяты из открытых источников.
Возрастная категория сайта: 18+
Тексты некоторых песен могут содержать нецензурные выражения, брань.
© 2021 guitar-chords.ru