Winnebago

I think this song is on some singles or something. Whatever... It's a
cool song though. This should help you play it kinda:
e|---------------------------------------------------|
B|-----0-----0---0-----0---0-----0-------------------|
G|---6---6-6---6---6-6---6---6-6---------------------|
D|---6---6-6---6---6-6---6---6-6---------------------|
A|---4---4-4---4---4-4---4---4-4---4-2-4-2-4-2-4-2---|  --Play this part
E|---------------------------------------------------|     muted during
  I don't know the words I don't know the words I don      the solo.

Play that for a while, then do this:
|---3---3---3---3---3---3---1-1-1---|
|---3---3---3---3---3---3---1-1-1---|
|---4---4---4---4---4---4---2-2-2---|
|---5---5---5---5---5---5---3-3-3---|
|---5---5---5---5---5---5---3-3-3---|
|---3---3---3---3---3---3---1-1-1---|

Then this:
|---------------------------------------------------------------------|
|--------0-------0-------0-------0-------0-------0--------------------|
|---6-6-----4-4-----9-9-----4-4-----5-5---------------2-2-2-0-2-0-2---|
|---6-6-----4-4-----9-9-----4-4-----5-5-----5-5-------2-2-2-0-2-0-2---|
|---4-4-----2-2-----7-7-----2-2-----3-3-----5-5-------1-1-1-0-1-0-1---|
|-------------------------------------------3-3-----------------------|
                                                      Bend up a little
                                                      on those Bb  power
                                                      chords.

Listen to the record and you will be able to play it.


© Авторские права на тексты, песни, видео и другую представленную информацию принадлежат правообладателям. Аккорды, табы, gtp и тексты песен взяты из открытых источников.
Возрастная категория сайта: 18+
Тексты некоторых песен могут содержать нецензурные выражения, брань.
© 2021 guitar-chords.ru