Bass:        
|------------| ----------------|----------------|----------------|
|------------|*----------------|----------------|----------------|
|------------|*----------------|5---------------|----------------|
|------------| 5---------------|----------------|3---------------|

|----------------4x|----------------|----------------|----------------|
|----------------*||----------------|----------------|----------------|
|3-----2-----3-2-*||----------------|----------------|----------------|
|---------------- ||1---------------|3---------------|5---------------|

|----------------2x|----------------|----------------|----------------|
|----------------*||----------------|----------------|----------------|
|----------------*||----------------|----------------|3-------2-------|
|5-------5-5-5-5- ||1---------------|3---------------|----------------|

|----------------|----------------|----------------|----------------|
|----------------|----------------|----------------|----------------|
|----------------|----------------|----------------|----------------|
|5-------3-------|5---------------|3---------------|5---------------|


© Авторские права на тексты, песни, видео и другую представленную информацию принадлежат правообладателям. Аккорды, табы, gtp и тексты песен взяты из открытых источников.
Возрастная категория сайта: 18+
Тексты некоторых песен могут содержать нецензурные выражения, брань.
© 2021 guitar-chords.ru