Bass:        
|-------------------|
|-------------------|
|-3-2-320--5--------|
|------------3-2345-|

|-------------|
|-------------| } repeat 3x
|-0-5---3-2-32|
|-----3-------|

|-------------|
|-------------|
|-0-5---3-2---|
|-----3-----1-|

|------------------|
|------------------| } repeat 2x
|------------------|
|-1-3--3-5-555-3-1-|

|--------------------------|
|--------------------------|
|-------3-2-0--------------|
|-1-3---------3-1--1-3-1-5-|

|-------------|
|-------------| } repeat 3x
|-0-5---3-2-32|
|-----3-------|

|---------------|
|---------------|
|-0-5---3-2-----|
|-----3-----1-1-|

|-------------------|
|-------------------| } repeat 2x
|-------------------|
|-1-3--3-5--555-3-1-|

|---------------------------|
|---------------------------|
|-------3-2-0---------------|
|-1-3---------3-1--1-3--3-5-|

|----------------------------------------|
|----------------------------------------|
|-5--5-----------------------------------|
|------1--1-3--3-5-3-1--1-3-3-5--555-3-1-|

|----------------------------------|
|----------------------------------|
|----------------------------------|
|-1-3--3-000000001111-1-1--1-3--3-5|

|-------------------|
|-------------------| } repeat 3x
|-5---------3-2-320-|
|----0-1-3----------|

|---------------------|
|---------------------|
|-5---------3-2-0-----|
|----0-1-3--------3-1-|

|------------------|
|------------------| } repeat 2x
|------------------|
|-1-3--3-5-555-3-1-|

|-----------------|
|-----------------|
|-------3-2-0-----|
|-1-3---------3-1-|

|-------------------------|
|-------------------------|
|-------------------------|
|-1-3--3-1--1-3--3-1--1-3-|

|------------------|
|------------------|
|------------------|
|-000000001111-1-1-|

|-------------------------|
|-------------------------|
|-------------------------|
|-1-3--3-1--1-3--3-1--1-3-|

|---|
|---|
|-3-|
|---|


© Авторские права на тексты, песни, видео и другую представленную информацию принадлежат правообладателям. Аккорды, табы, gtp и тексты песен взяты из открытых источников.
Возрастная категория сайта: 18+
Тексты некоторых песен могут содержать нецензурные выражения, брань.
© 2021 guitar-chords.ru