#табулатура

    
A Little Time

       Intro (Gtr1)
E---|-----------------------|-------------------------------
B---|-----------------------|-------------------------------
G---|-----------------------|-------------------------------
D---|--5--5--5--4--------2--|-------------------------------
A---|--3--3--3--2--------0--|-------------------------------
E---|-----------------------|-------------------------------

E------------------------------|----------------------------
B------------------------------|----------------------------
G------------------------------|----------------------------
D---------------------7--------|----------------------------
A------5-----7--------5-----7--|----------------------------
E------3-----5-----x-----x--5--|----------------------------

E------------------------------|----------------------------
B------------------------------|----------------------------
G------------------------------|----------------------------
D---4--4--4--4--4-----------2--|----------------------------
A---2--2--2--2--2-----------0--|----------------------------
E------------------------------|----------------------------

E---------------------------------|-------------------------
B---------------------------------|-------------------------
G---------------------------------|-------------------------
D---------------------------------|-------------------------
A---5-----5--5--5--5--/--7--7--7--|-------------------------
E---3-----3--3--3--3--/--5--5--5--|-------------------------

    Gtr 2 comes in with power chords
E------------------------|--------------------------|-------
B------------------------|--------------------------|-------
G------------------------|--------------------------|-------
D---4--4--4--4--------2--|-----------------7--------|-------
A---2--2--2--2--------0--|--5-----7--------5-----7--|-------
E------------------------|--3-----5-----x-----x--5--|-------

E------------------------|-----------------|--|-------------
B------------------------|-----------------|--|-------------
G------------------------|-----------------|--|-------------
D---4--4--4--4--------2--|-----------------|--|-------------
A---2--2--2--2--------0--|--5-----------7--|--|-------------
E------------------------|--3-----------5--|--|-------------

    Rhy Fig 1
E---||------------------------------------------------------
B---||------------------------------------------------------
G---||*-----------------------------------------------------
D---||*--4--4--4--4-----------------------------------------
A---||---2--2--2--2-----------------------------------------
E---||------------------------------------------------------

    (Use this RF for verse until brid
E------|--------------------------|-------------------------
B------|--------------------------|-------------------------
G------|--------------------------|-------------------------
D---2--|-----------------7--------|-------------------------
A---0--|--5--------7-----5-----7--|-------------------------
E------|--3--------5--x-----x--5--|-------------------------

E------------------------|----------------------------------
B------------------------|----------------------------------
G------------------------|----------------------------------
D---4--4--4--4--------2--|----------------------------------
A---2--2--2--2--------0--|----------------------------------
E------------------------|----------------------------------

    Two guitars
E-------------------------------------||--------------------
B-------------------------------------||--------------------
G---------------------------2--4--6--*||--------------------
D------------------2--4--5--4--5--7--*||--------------------
A---5-----2--4--5--4--5--7------------||--------------------
E---3-----3--5--7---------------------||--------------------

    Bridge  (Ohhhhh...)
E---------------------------------------|-------------------
B---------------------------------------|-------------------
G---------------------------------------|-------------------
D---7-----------------------------------|-------------------
A---5--5--5--5--5--5--5--5--5--5--5--5--|-------------------
E---------------------------------------|-------------------

                         I hear you
E---------------------------------------|-------------------
B---------------------------------------|-------------------
G---------------------------------------|-------------------
D---------------------------------------|-------------------
A---5--5--5--5--5--5--5--5--5--5--5--5--|-------------------
E---------------------------------------|-------------------

    say
E---------------------------------------|-------------------
B---------------------------------------|-------------------
G---------------------------------------|-------------------
D---------------------------------------|-------------------
A---4-----------------------------------|-------------------
E---2--2--2--2--2--2--2--2--2--2--2--2--|-------------------

                               that
E---------------------------------------|-------------------
B---------------------------------------|-------------------
G---------------------------------------|-------------------
D---------------------------------------|-------------------
A---------------------------------------|-------------------
E---2--2--2--2--2--2--2--2--2--2--2--2--|-------------------

    is the way
E---------------------------------------|-------------------
B---------------------------------------|-------------------
G---------------------------------------|-------------------
D---------------------------------------|-------------------
A---5-----------------------------------|-------------------
E---3--3--3--3--3--3--3--3--3--3--3--3--|-------------------

                            of the
E---------------------------------------|-------------------
B---------------------------------------|-------------------
G---------------------------------------|-------------------
D---------------------------------------|-------------------
A---------------------------------------|-------------------
E---3--3--3--3--3--3--3--3--3--3--3--3--|-------------------

    world
E------------------------------------|----------------------
B------------------------------------|----------------------
G------------------------------------|----------------------
D------------------------------------|----------------------
A---4--4-----------4--4--------------|----------------------
E---2--2-----------2--2--------------|----------------------

                                        Ohh
E------------------------------------|--|-------------------
B------------------------------------|--|-------------------
G------------------------------------|--|-------------------
D------------------------------------|--|-------------------
A---4--4-----------------4--4--4--4--|--|-------------------
E---2--2-----------------2--2--2--2--|--|-------------------

E---------------------------|-------------------------------
B---------------------------|-------------------------------
G---------------------------|-------------------------------
D---7-----------------------|-------------------------------
A---5-----------------------|-------------------------------
E---------------------------|-------------------------------

             hear what I say
E------------------------|----------------------------------
B------------------------|----------------------------------
G------------------------|----------------------------------
D------------------------|----------------------------------
A---4--------------------|----------------------------------
E---2--------------------|----------------------------------

       I wanna  do so much
E---------------------------------|-------------------------
B---------------------------------|-------------------------
G---------------------------------|-------------------------
D---------------------------------|-------------------------
A---5-----------------------------|-------------------------
E---3-----------------------------|-------------------------

                   in my way
             (1rst time, back to Rf1
E-----------------------------------------------------------
B-----------------------------------------------------------
G-----------------------------------------------------------
D-----------------------------------------------------------
A---7--------------8----------------------------------------
E---5--------------6----------------------------------------

                         2nd time to chorus)

         Chorus
E---||---------------21^---21^---|--|-----------------------
B---||---------------22-^--22-^--|--|-----------------------
G---||*--------------------------|--|-----------------------
D---||*--------4-----------------|--|-----------------------
A---||---------2-----------------|--|-----------------------
E---||---------------------------|--|-----------------------

                             3x
E----------------------------||-----------------------------
B----------------------------||-----------------------------
G---------------------------*||-----------------------------
D---------------------------*||-----------------------------
A---5--------------------7---||-----------------------------
E---3--------------------5---||-----------------------------

       Tiiiiiiiimmmmmmme
E-----------------------------------------------------------
B-----------------------------------------------------------
G-----------------------------------------------------------
D-----------------------------------------------------------
A------9--------------------------7-------------------------
E------7--------------------------5-------------------------

                      Rhythm for s
E------|-----------------------|----------------------------
B------|-----------------------|----------------------------
G------|-----------------------|----------------------------
D------|-----------------------|----------------------------
A------|--------------5--5--5--|----------------------------
E------|--------------3--3--3--|----------------------------

E------------------------------|----------------------------
B------------------------------|----------------------------
G------------------------------|----------------------------
D------------------------------|----------------------------
A---5-----------------2--2--2--|----------------------------
E---3-----------------0--0--0--|----------------------------

E------------------------------|----------------------------
B------------------------------|----------------------------
G------------------------------|----------------------------
D------------------------------|----------------------------
A---2-----------------5--5--5--|----------------------------
E---0-----------------3--3--3--|----------------------------

E------------------------------|----------------------|-----
B------------------------------|----------------------|-----
G------------------------------|----------------------|-----
D------------------------------|----------------------|-----
A---5-----------------2--2--2--|--2-------------------|-----
E---3-----------------0--0--0--|--0-----------3p0--0--|-----

E------------------------|----------------------------------
B------------------------|----------------------------------
G------------------------|----------------------------------
D------------------------|----------------------------------
A---5-----------2--2--2--|----------------------------------
E---3-----------0--0--0--|----------------------------------

E---------------------------------------|--|----------------
B---------------------------------------|--|----------------
G---------------------------------------|--|----------------
D---------------------------------------|--|----------------
A---2--------------4--------------------|--|----------------
E---0--------------2--------------------|--|----------------

E------------------------------|-----------------------|----
B------------------------------|-----------------------|----
G------------------------------|-----------------------|----
D------------------------------|-----------------------|----
A---5-----------------7--7--7--|--7-----------4--4--4--|----
E---3-----------------5--5--5--|--5-----------2--2--2--|----

E------------------------------|----------------------------
B------------------------------|----------------------------
G------------------------------|----------------------------
D------------------------------|----------------------------
A---4-----------------7--7--7--|----------------------------
E---2-----------------5--5--5--|----------------------------

E---------------------------|-------------------|-----------
B---------------------------|-------------------|-----------
G---------------------------|-------------------|-----------
D---------------------------|-------------------|-----------
A---7--------------4--4--4--|--4----------------|-----------
E---5--------------2--2--2--|--2--------5p2--2--|-----------

E------------------------|--------------------------|-------
B------------------------|--------------------------|-------
G------------------------|--------------------------|-------
D------------------------|--------------------------|-------
A---7-----------4--4--4--|--4-----------5--5--5--7--|-------
E---5-----------2--2--2--|--2-----------3--3--3--5--|-------

                      Free time till alarm rings
E-----------------------------------------------------------
B-----------------------------------------------------------
G-----------------------------------------------------------
D------------------9----------------------------------------
A---7--7-----------7----------------------------------------
E---5--5-----------0----------------------------------------

Play Chorus riff until Fade out
E-----------------------------------------------------------
B-----------------------------------------------------------
G-----------------------------------------------------------
D-----------------------------------------------------------
A-----------------------------------------------------------
E-----------------------------------------------------------

© Авторские права на тексты, песни, видео и другую представленную информацию принадлежат правообладателям. Аккорды, табы, gtp и тексты песен взяты из открытых источников.
Возрастная категория сайта: 18+
Тексты некоторых песен могут содержать нецензурные выражения, брань.
© 2021 guitar-chords.ru