#табулатура

    
I Miss You

Проверяла данный продукт лично. Могу сказать, что не co всем согласна, но, в
принципе, вполне удобоваримо. Предваряя фразу "критикуя - предлагай", скажу,
что я не пишу табулатур, a предпочитаю подбирать на слух и запоминать. Так что,
берите то, чем уже пользуется цивилизованный мир!

Drop D-Tuning

E---------------------------------
B---------------------------------
G------------0-----------0----------
D----0-0---0--0---0-0--0--0---------------
A---4-4-4-4-4----4-4--4-4------------------
D--0-----5------0----5----------------

E--------------------------------------
B--------------------------------------
G--444444-----------------777777777-------------------
D--444444-5555-7777-777777777-------------------
A--222222-3333-5555-555555555-------------------
D--------------3333-5555----------------------------

© Авторские права на тексты, песни, видео и другую представленную информацию принадлежат правообладателям. Аккорды, табы, gtp и тексты песен взяты из открытых источников.
Возрастная категория сайта: 18+
Тексты некоторых песен могут содержать нецензурные выражения, брань.
© 2021 guitar-chords.ru