Intro & verse (Guitar 1 and 2)
e--------------------------------------------------------
B--------------------------------------------------------
G-3------------------------------------------------------
D-4--4-4-4-4-4-4--4-4-4-4-4-4--4-4-4-4-4-4--4-4-4-4-4---- } X6
A-4--4-4-4-4-4-4--4-4-4-4-4-4--4-4-4-4-4-4--4-4-4-4-4----
E-2--0-2-0-2-0-2--0-2-0-2-0-2--0-2-0-2-0-2--0-2-0-2-0----

Choros
e----------------------------------------------------------------------------
B----------------------------------------------------------------------------
G----------------------------------------------------------------------------
D-9--9--9-9-9-9-7--7--7-7-7-7-4--4-4-4-4-4-4--4-4-4-4-4-9--9--9-9-9-9-12--12-
A-9--9--9-9-9-9-7--7--7-7-7-7-4--4-4-4-4-4-4--4-4-4-4-4-9--9--9-9-9-9-12--12-
E-7--7--7-7-7-7-5--5--5-5-5-5-2--0-2-0-2-0-2--0-2-0-2-0-7--7--7-7-7-7-10--10-

e----------------------------------------------------------------------------
B----------------------------------------------------------------------------
G----------------------------------------------------------------------------
D-12-12-12-12----------------------------------------------------------------
A-12-12-12-12----------------------------------------------------------------
E-10-10-10-10----------------------------------------------------------------

Verse (Guitar 1)
e------------------------------------------------------
B------------------------------------------------------
G------------------------------------------------------
D-4--4-4-4-4-4-4--4-4-4-4-4-4--4-4-4-4-4-4--4-4-4-4-4-- } X5
A-4--4-4-4-4-4-4--4-4-4-4-4-4--4-4-4-4-4-4--4-4-4-4-4--
E-2--0-2-0-2-0-2--0-2-0-2-0-2--0-2-0-2-0-2--0-2-0-2-0--

Guitar 2
e-------------------------------------------------------
B-------------------------------------------------------
G---------------------------6--5-6-5-6-5-6-------------- } X5
D-------------------------------------------------------
A-------------------------------------------------------
E-------------------------------------------------------

Play the chorus again

Solo
e-12b14-12b14-12b14-12b14--12b14p12-9-----------------------12------12-------
B--------------------------------------12b14p12-10-10-10-12-13b14-14---------
G----------------------------------------------------------------------------
D----------------------------------------------------------------------------
A----------------------------------------------------------------------------
E----------------------------------------------------------------------------

e-12----------12-------------------------------------------------------------
B-13b14p13----13b14-4/----------4/----------4/-4/-2---2-4-4/-4/-4-4-4-4--4---
G----------14-------4/-2---2-4-4/-2---2-4-4/-4/---4-----4/-4/-4-4-4-4--4---
D-------------------------4-----------4--------------------------------------
A----------------------------------------------------------------------------
E----------------------------------------------------------------------------

play the chorus till the end


© Авторские права на тексты, песни, видео и другую представленную информацию принадлежат правообладателям. Аккорды, табы, gtp и тексты песен взяты из открытых источников.
Возрастная категория сайта: 18+
Тексты некоторых песен могут содержать нецензурные выражения, брань.
© 2021 guitar-chords.ru