Keyboard 3.
Tab by T.P

E||------------------|------------------|------------------|------------------|
B||------------------|------------------|------------------|------------------|
G||------------------|------------------|------------------|------------------|
D||------------------|------------------|------------------|------------------|
A||------------------|------------------|------------------|------------------|
E||------------------|------------------|------------------|------------------|

------------------|------------------|------------------|------------------|
------------------|------------------|------------------|------------------|
------------------|------------------|------------------|------------------|
------------------|------------------|------------------|------------------|
------------------|------------------|------------------|------------------|
------------------|------------------|------------------|------------------|

------------------|--------12-17-------12-17-------12-17-12----12-17-|
------------------|-----13----------13----------13----------13-------|
------------------|--14----------14----------14----------------------|
------------------|--------------------------------------------------|
------------------|--------------------------------------------------|
------------------|--------------------------------------------------|

--15----15-20-15----15-20-15----15-20-15----15-20-|
-----17----------17----------15----------15-------|
--------------------------------------------------|
--------------------------------------------------|
--------------------------------------------------|
--------------------------------------------------|

--------12-17-------12-17-------12-17-12----12-17-|
-----13----------13----------13----------13-------|
--14----------14----------14----------------------|
--------------------------------------------------|
--------------------------------------------------|
--------------------------------------------------|

--12----12-17-12----12-17-17----17-22-17----17-22-|
-----12----------12----------19----------19-------|
--------------------------------------------------|
--------------------------------------------------|
--------------------------------------------------|
--------------------------------------------------|

--------12-17-------12-17-------12-17-12----12-17-|
-----13----------13----------13----------13-------|
--14----------14----------14----------------------|
--------------------------------------------------|
--------------------------------------------------|
--------------------------------------------------|

--15----15-20-15----15-20-15----15-20-15----15-20-|
-----17----------17----------15----------15-------|
--------------------------------------------------|
--------------------------------------------------|
--------------------------------------------------|
--------------------------------------------------|

--------12-17-------12-17-------12-17-12----12-17-|
-----13----------13----------13----------13-------|
--14----------14----------14----------------------|
--------------------------------------------------|
--------------------------------------------------|
--------------------------------------------------|

--12----12-17-12----12-17-17----17-22-17----17-22-|------------------|
-----12----------12----------19----------19-------|------------------|
--------------------------------------------------|------------------|
--------------------------------------------------|------------------|
--------------------------------------------------|------------------|
--------------------------------------------------|------------------|

------------------|------------------|------------------|------------------|
------------------|------------------|------------------|------------------|
------------------|------------------|------------------|------------------|
------------------|------------------|------------------|------------------|
------------------|------------------|------------------|------------------|
------------------|------------------|------------------|------------------|

------------------|------------------|------------------|------------------|
------------------|------------------|------------------|------------------|
------------------|------------------|------------------|------------------|
------------------|------------------|------------------|------------------|
------------------|------------------|------------------|------------------|
------------------|------------------|------------------|------------------|

------------------|------------------|------------------|------------------|
------------------|------------------|------------------|------------------|
------------------|------------------|------------------|------------------|
------------------|------------------|------------------|------------------|
------------------|------------------|------------------|------------------|
------------------|------------------|------------------|------------------|

------------------|------------------|------------------|------------------|
------------------|------------------|------------------|------------------|
------------------|------------------|------------------|------------------|
------------------|------------------|------------------|------------------|
------------------|------------------|------------------|------------------|
------------------|------------------|------------------|------------------|

------------------|------------------|------------------|------------------|
------------------|------------------|------------------|------------------|
------------------|------------------|------------------|------------------|
------------------|------------------|------------------|------------------|
------------------|------------------|------------------|------------------|
------------------|------------------|------------------|------------------|

------------------|------------------|------------------|------------------|
------------------|------------------|------------------|------------------|
------------------|------------------|------------------|------------------|
------------------|------------------|------------------|------------------|
------------------|------------------|------------------|------------------|
------------------|------------------|------------------|------------------|

------------------|--8-0-8-0-7-0-7-0-5-0-5-0-8-7-5---|
------------------|--------------------------------5-|
------------------|----------------------------------|
------------------|----------------------------------|
------------------|----------------------------------|
------------------|----------------------------------|

--8-0-8-0-7-0-7-0-5-0-5-0-3-5-7-3-|--8-0-8-0-7-0-7-0-5-0-5-0-8-7-5---|
----------------------------------|--------------------------------5-|
----------------------------------|----------------------------------|
----------------------------------|----------------------------------|
----------------------------------|----------------------------------|
----------------------------------|----------------------------------|

--8-0-8-0-7-0-7-0-3-1-3-5-7-5-7-8-|------------------|------------------|
----------------------------------|------------------|------------------|
----------------------------------|------------------|------------------|
----------------------------------|------------------|------------------|
----------------------------------|------------------|------------------|
----------------------------------|------------------|------------------|

------------------|------------------|
------------------|------------------|
------------------|------------------|
------------------|------------------|
------------------|------------------|
------------------|------------------|

--------12-17-------12-17-------12-17-12----12-17-|
-----13----------13----------13----------13-------|
--14----------14----------14----------------------|
--------------------------------------------------|
--------------------------------------------------|
--------------------------------------------------|

--15----15-20-15----15-20-15----15-20-15----15-20-|
-----17----------17----------15----------15-------|
--------------------------------------------------|
--------------------------------------------------|
--------------------------------------------------|
--------------------------------------------------|

--------12-17-------12-17-------12-17-12----12-17-|
-----13----------13----------13----------13-------|
--14----------14----------14----------------------|
--------------------------------------------------|
--------------------------------------------------|
--------------------------------------------------|

--12----12-17-12----12-17-17----17-22-17----17-22-|
-----12----------12----------19----------19-------|
--------------------------------------------------|
--------------------------------------------------|
--------------------------------------------------|
--------------------------------------------------|

--------12-17-------12-17-------12-17-12----12-17-|
-----13----------13----------13----------13-------|
--14----------14----------14----------------------|
--------------------------------------------------|
--------------------------------------------------|
--------------------------------------------------|

--15----15-20-15----15-20-15----15-20-15----15-20-|
-----17----------17----------15----------15-------|
--------------------------------------------------|
--------------------------------------------------|
--------------------------------------------------|
--------------------------------------------------|

--------12-17-------12-17-------12-17-12----12-17-|
-----13----------13----------13----------13-------|
--14----------14----------14----------------------|
--------------------------------------------------|
--------------------------------------------------|
--------------------------------------------------|

--12----12-17-12----12-17-17----17-22-17----17-22-|------------------|
-----12----------12----------19----------19-------|------------------|
--------------------------------------------------|------------------|
--------------------------------------------------|------------------|
--------------------------------------------------|------------------|
--------------------------------------------------|------------------|

------------------|------------------|------------------|------------------|
------------------|------------------|------------------|------------------|
------------------|------------------|------------------|------------------|
------------------|------------------|------------------|------------------|
------------------|------------------|------------------|------------------|
------------------|------------------|------------------|------------------|

------------------|------------------|------------------|------------------|
------------------|------------------|------------------|------------------|
------------------|------------------|------------------|------------------|
------------------|------------------|------------------|------------------|
------------------|------------------|------------------|------------------|
------------------|------------------|------------------|------------------|

------------------|------------------||
------------------|------------------||
------------------|------------------||
------------------|------------------||
------------------|------------------||
------------------|------------------||


© Авторские права на тексты, песни, видео и другую представленную информацию принадлежат правообладателям. Аккорды, табы, gtp и тексты песен взяты из открытых источников.
Возрастная категория сайта: 18+
Тексты некоторых песен могут содержать нецензурные выражения, брань.
© 2020 guitar-chords.ru