Du Hast 1997, Sehnsucht (Japan) 1997, Live Aus Berlin (Limited Editition) 1999
Du Hast

Effects:    
DOD Death Metal Distortion

Standard Tuning

Intro:        
(0:17)w/Heavy Metal Distortion
Eb|---------------------------------|
Bb|---------------------------------|
Gb|---------------------------------|
Db|-7/5-222222-75-2222222222--------|
Ab|-7/5-222222-75-2222222222--------|
Eb|-5/3-000000-53-0000000000--------|
Pm      ......    ..........

Eb|---------------------------------|
Bb|---------------------------------|
Gb|---------------------------------|
Db|-7/5-222222-75-2222222222--------|
Ab|-7/5-222222-75-2222222222--------|
Eb|-5/3-000000-53-0000000000--------|
Pm      ......    ..........

Eb|---------------------------------|
Bb|---------------------------------|
Gb|---------------------------------|
Db|-7/5-222222-75-2222222222--------|
Ab|-7/5-222222-75-2222222222--------|
Eb|-5/3-000000-53-0000000000--------|
Pm      ......    ..........

Eb|---------------------------------|
Bb|---------------------------------|
Gb|---------------------------------|
Db|-5/7-777777777-------------------|
Ab|-5/7-777777777-------------------|
Eb|-3/5 555555555-------------------|
Pm      .........

Second Part With Lyrics and Keyboard
(1:32)
Eb|---------------------------------|
Bb|---------------------------------|
Gb|---------------------------------|
Db|-7/5-222222-75-2222222222--------|
Ab|-7/5-222222-75-2222222222--------|
Eb|-5/3-000000-53-0000000000--------|
Pm      ......    ..........
    Willst du bist der toch..
Eb|---------------------------------|
Bb|---------------------------------|
Gb|---------------------------------|
Db|-5/7-777777777--5/7-777777777----|
Ab|-5/7-777777777--5/7-777777777----|
Eb|-3/5 555555555--3/5 555555555----|
Pm      .........      .........
    Treu ihr sain fur alle tage

Eb|---------------------------------|
Bb|---------------------------------|
Gb|---------------------------------|
Db|-7/10 101010-12-9-9999999999-----|
Ab|-7/10-101010-12-9-9999999999-----|
Eb|-5/8  888888-10-7-7777777777-----|
Pm       ......      ..........
    jaaaaaaaaa     nein!

Eb|---------------------------------|
Bb|---------------------------------|
Gb|---------------------------------|
Db|-7/5-222222-75-2222222222--------|
Ab|-7/5-222222-75-2222222222--------|
Eb|-5/3-000000-53-0000000000--------|
Pm      ......    ..........
    jaaaaaaaaa    nein

Do that twice then once with this keyboard
thing.

Eb|-12p10------------------10----|
Bb|-------10-13-12---12/13----12-|
Gb|----------------9-------------|

Eb|-12p10------------------10----|
Bb|-------10-13-12---12-13----12-|
Gb|----------------9-------------|

You should put some chorus on this
part so it can sound a little like
the keyboard.

Song Format:    (0:17) Intro/Riff 1 (1x)
(1:03) Riff 1 (1x)
(1:32) Riff 2 (1x)
(2:03) Riff 2 (1x)w/Keyboard Thing
(2:33) Riff 2 (2x)
(3:04) Riff 2 (2x)
(3:35) Riff 2 (1x)w/Keyboard Thing
(3:50) Keyboard Thing By Itself

Key:        
p= pull off to fret indicated
/= slide
pm......= Palm Mute


© Авторские права на тексты, песни, видео и другую представленную информацию принадлежат правообладателям. Аккорды, табы, gtp и тексты песен взяты из открытых источников.
Возрастная категория сайта: 18+
Тексты некоторых песен могут содержать нецензурные выражения, брань.
© 2020 guitar-chords.ru