Intro:
   N.C. 
1|----------------------------------------------------
2|----------------------------------------------------
3|----------------------------------------------------
4|----------------------------------------------------
5|----------------------------------------------------
6|-0-2-3-5-2-2--2-5-2-0-5---0-2-3-5-2-2-2-5-2-0-5-2-0-

Verse:
   N.C. 
1|---------------------------------------------------------
2|---------------------------------------------------------
3|---------------------------------------------------------
4|---------------------------------------------------------
5|---------------------------------------------------------
6|-5-2-0-5-2-0-0-0-0--5-2-0-5-2-0-0-0-0--5-2-0-5-2-0-0-0-0-
   N.C. 
1|---------------
2|---------------
3|---------------
4|---------------
5|---------5-5-5-
6|-5-2-0-5-------
        | Palm  |
        |  mute |

Chorus:
  G#5 N.C.      G#5 N.C. 
1|----------------------------------------------
2|----------------------------------------------
3|----------------------------------------------
4|----------------------------------------------
5|-6-------------6------------------------------
6|-4--4-4-4-4-4--4--4--4-4-4--6--4--2---2-2-2-2-
  G#5 N.C.    G#5 N.C. 
1|-----------------------------------
2|-----------------------------------
3|-----------------------------------
4|-----------------------------------
5|-6-----------6---------------------
6|-4--4-4-4-4--4--4-4-4--6--4--2-2-2-

Post-Chorus:
   N.C. 
1|-----------------------------------------------
2|-----------------------------------------------
3|-----------------------------------------------
4|-----------------------------------------------
5|-----------------------------------------------
6|-3--3-3-3-3-3--3--0--5--3--3-3-3-3-3---7--5--7-

Bridge:
   N.C. 
1|---------------------------------------------------------
2|---------------------------------------------------------
3|---------------------------------------------------------
4|---------------------------------------------------------
5|-------7-5------7-5-----------------7-5-----7-5------7-5-
6|-3-3-3------3-3-----3-3-7-5---3-3-3-----3-3------3-3-----

Reggae Part:
GCF 

Heavy Part:
   G5    C5/G  F5    G5   C5/G F5    G5   C5/G F5   G5   C5/G F5 
1|--------------------------------------------------------------------
2|--------------------------------------------------------------------
3|-------5----------------5---------------5--------------5------------
4|-5-----5-----3-----5----5----3-----5----5----3----5----5----3-3-3-3-
5|-5-----3-----3-----5----3----3-----5----3----3----5----3----3-3-3-3-
6|-3-----3-----1-----3----3----1-----3----3----1----3----3----1-1-1-1-

Lyrics/Song Structure:
Play Intro (x3)
Play Verse (x4)
Play Chorus over:
Play Post-Chorus (x4)
Play Intro (x3)
Play Verse (x4)
Play Chorus over:
Play Post-Chorus (x4)
Play Bridge (x2)
Play Reggae Part over:
You're a transistor, lightning resistor
Conduction to the mother star
Yes, that's what you are
Play Heavy Part over:


© Авторские права на тексты, песни, видео и другую представленную информацию принадлежат правообладателям. Аккорды, табы, gtp и тексты песен взяты из открытых источников.
Возрастная категория сайта: 18+
Тексты некоторых песен могут содержать нецензурные выражения, брань.
© 2020 guitar-chords.ru