This is a kinda tricky song so I only have the first 2 parts of the
song

intro/verse
e|--------------------------------------------------|
B|--------------------------------------------------|
G|--------------------------------------------------|
D|--------------------------------------------------|
A|--------0-----0-----0----------0------0-----0---|
E|-0-2-3---2-2---2-1-----0-2-3----2-2---2-1-----|

pre-chorus
e|--------------------------------------------------------------|
B|--------------------------------------------------------------|
G|--------------------------------------------------------------|
D|--------------------------------------------------------------|
A|-0-----0-------0------0-------0-----0--------0-----0-------|
E|---2-0---2222---2-0---2222----2-0---2222---2-0---2222-|

© Авторские права на тексты, песни, видео и другую представленную информацию принадлежат правообладателям. Аккорды, табы, gtp и тексты песен взяты из открытых источников.
Возрастная категория сайта: 18+
Тексты некоторых песен могут содержать нецензурные выражения, брань.
© 2020 guitar-chords.ru