Riff 1 (w/distortion):
1|-----------------------------------------------
2|-----------------------------------------------
3|----2-----2-----2-------2-----2-----2----------
4|--4-2-4-4-2-4-2-2-----4-2-4-4-2-4-2-2-4-2------
5|--4-0-4-4-0-4-2-0-----4-0-4-4-0-4-2-0-4-2------
6|--2---2-2---2-0---0-1-2---2-2-----0---2-0-0-1--

Riff 2 (w/distortion):
1|--------------------------------------------------------------------
2|--------------------------------------------------------------------
3|--------------------------------------------------------------7-7-7-
4|------------2-2-2-----------2-2-2-----------2-2-2-------------7-7-7-
5|------------2-2-2-----------2-2-2-----------2-2-2-------------5-5-5-
6|--5-2-0-5-2-0-0-0-5-2-0-5-2-0-0-0-5-2-0-5-2-0-0-0-5-2-0-5-2-0-------

Chorus (w/distortion):
1|-----------------------------
2|-----------------------------
3|--9--------------------------
4|--9-7-7-7-7-7--9-7-5---5-5-5-
5|--7-7-7-7-7-7--9-7-5---5-5-5-
6|----5-5-5-5-5--7-5-3---3-3-3-

Riff 3 (w/distortion):
1|------------------------------
2|------------------------------
3|------------5-8---------5-3-5-
4|--6-6-6-6-6-5-8-6-6-6-6-5-3-5-
5|--6-6-6-6-6-3-6-6-6-6-6-3-1-3-
6|--4-4-4-4-4-----4-4-4-4-------

Riff 4 (w/distortion):
1|--------------------------------
2|--------------------------------
3|--------10-8-------10-8-----5-3-
4|--6-6-6-10-8-6-6-6-10-8-6-6-5-3-
5|--6-6-6-8--6-6-6-6-8--6-6-6-3-1-
6|--4-4-4------4-4-4------4-4-----

Bridge (clear):
1|--3-3--0-0--1-1--1-1-
2|--3-3--0-0--1-1--1-1-
3|--4-4--1-1--2-2--2-2-
4|---------------------
5|---------------------
6|---------------------

Riff 5 (w/distortion):
1|----------------------------------------------------------------
2|----------------------------------------------------------------
3|----------------------------------------------------------------
4|--5--2--3--3-2-3-5--2--3-3-3-3-2-3-5--2--3--3-2-3-5--2--3-3-3-3-
5|--5--2--3--3-2-3-5--2--3-3-3-3-2-3-5--2--3--3-2-3-5--2--3-3-3-3-
6|--3--0--1--1-0-1-3--0--1-1-1-1-0-1-3--0--1--1-0-1-3--0--1-1-1-1-

Lyrics/Song Structure:
Play Riff 1
Play Riff 1 over:
Play Riff 2 over:
Play Chorus over:
Play Riff 3 over:
Play Riff 1
Play Riff 1 over:
Play Riff 2 over:
Play Chorus over:
Play Riff 3 over:
Play Riff 4 (x4)
Play Bridge over:
Play Riff 5 over:


© Авторские права на тексты, песни, видео и другую представленную информацию принадлежат правообладателям. Аккорды, табы, gtp и тексты песен взяты из открытых источников.
Возрастная категория сайта: 18+
Тексты некоторых песен могут содержать нецензурные выражения, брань.
© 2020 guitar-chords.ru