#табулатура

    "Urban Discipline"
Mistaken Identety

Intro:        
e-|-------------------------------------------------|--|--
B-|-------------------------------------------------|--|--
G-|-------------------------------------------------|%-|--
D-|-------------------------------------------------|%-|--
A-|-4-4-4-4-7----4-4-4-6-5----4-4-4-4-7----4-4-4-5--|--|--
E-|-2-2-2-2-5----2-2-2-4-3----2-2-2-2-5----2-2-2-3--|--|--

Verse:        
e-|--------------------------------------------|--|--
B-|--------------------------------------------|--|--
G-|--------------------------------------------|--|--
D-|------------7-7-7-7-7-----------------------|--|--
A-|-4-4-4-4-4--5-5-5-5-5--7-7-7-7-7--2-2-5-5-5-|--|--
E-|-2-2-2-2-2-------------5-5-5-5-5--0-0-3-3-3-|--|--

© Авторские права на тексты, песни, видео и другую представленную информацию принадлежат правообладателям. Аккорды, табы, gtp и тексты песен взяты из открытых источников.
Возрастная категория сайта: 18+
Тексты некоторых песен могут содержать нецензурные выражения, брань.
© 2020 guitar-chords.ru