Акустика

E||--0-----------------------|-----------------------|
H||-----0-----------------0--|-----------0-----------|
G||--------0-----------0-----|--------0---------3----|
D||-----------0-----0--------|-----3-----------------|
A||--------------------------|--1--------------------|
E||--0-----------3-----------|-----------------------|

--0-----------------------|--------------------------|
-----0-----------------0--|-----------0--------------|
--------0-----------0-----|--------0-----2-----2h-4--|
-----------0-----0--------|-----4-----------4--------|
--------------------------|--2-----------------------|
--0-----------3-----------|--------------------------|

--0-----------------------|-----------------------|-----------0--------------|
-----0-----------------0--|-----------0-----------|--------------3h-1--0-----|
--------0-----------0-----|--------0---------3----|--------0--------------0--|
-----------0-----0--------|-----3-----------------|-----2--------------------|
--------------------------|--1--------------------|--3-----------------------|
--0-----------3-----------|-----------------------|--------------------------|

-----------0------------|--------------------|--------------0-----------|
--------------1--0------|--------------------|-----------1-----1--------|
--------2---------------|--------------------|--------2-----------2-----|
-----2------------------|--------------------|-----2-----------------2--|
--0---------------------|--------------3h-2--|--0-----------------------|
------------------------|--------------------|--------------------------|

-----------3-------------|-----------0--------------|
----------------3--------|--------------3h-1h-0-----|
--------0----------0-----|--------0--------------0--|
-----0----------------0--|-----2--------------------|
-------------------------|--3-----------------------|
--3----------------------|--------------------------|

----------------------------|--------------0-----------|
-----------0----1--0h1h0----|-----------1-----1--------|
-------------------------0--|--------2-----------2-----|
--------2-------------------|-----2-----------------2--|
-----2----------------------|--0-----------------------|
--0-------------------------|--------------------------|

-----------0-------------|-----------3--------------|
----------------1--------|--------------0-----------|
--------0----------0-----|-----------------0--------|
-----2----------------2--|--------0-----------0-----|
--3----------------------|-----2-----------------2--|
-------------------------|--3-----------------------|

----------------------------|--------------0-----------|
-----------0----1--0h1h0----|-----------1-----1--------|
-------------------------0--|--------2-----------2-----|
--------2-------------------|-----2-----------------2--|
-----2----------------------|--0-----------------------|
--0-------------------------|--------------------------|

-----------0-------------|-----------3--------------|
----------------1--------|--------------0-----------|
--------0----------0-----|-----------------0--------|
-----2----------------2--|--------0-----------0-----|
--3----------------------|-----2-----------------2--|
-------------------------|--3-----------------------|

----------------------------|--------------------------|--0----------------|
-----------1----0-----------|-----------1--------1-----|-------------------|
-------------------2h4h2h0--|--------2-----2--------2--|-------------------|
--------3-------------------|-----2-----------2--------|-------------------|
-----3----------------------|--0-----------------------|-------------------|
--1-------------------------|--------------------------|-------------------|

--------------------3-----|----------------------------|
--1-----------1--------1--|--0--------0----1--0h1h0----|
-----2-----------2--------|--------0----------------0--|
--------2-----2-----------|-----2----------------------|
--0--------0--------------|----------------------------|
--------------------------|--0-------------------------|

-----------3--------------|-------------------------|-----------0--------------|
--------------3h-0--------|-----------4----------4--|--------------3h-1h-0-----|
--------0-----------0-----|--------4-------4--------|--------0--------------0--|
-----0-----------------0--|-----4-------------4-----|-----2--------------------|
--------------------------|--2----------------------|--3-----------------------|
--3-----------------------|-------------------------|--------------------------|

----------------------------|--------------------------|--0----------------|
-----------1----0-----------|-----------1--------1-----|-------------------|
-------------------2h4h2h0--|--------2-----2--------2--|-------------------|
--------3-------------------|-----2-----------2--------|-------------------|
-----3----------------------|--0-----------------------|-------------------|
--1-------------------------|--------------------------|-------------------|

                                               8 раз
--0-----------2-----------|--2-----------0-----------|
-----0-----------3--------|-----3-----------1--------|
*-------0-----------2-----|--------4-----------0----*|
*----------2--0--------0--|-----------4-----------2-*|
--------------------------|--2-----------3-----------|
--0-----------------------|--------------------------|

--2-----------------5h-3--|--------------------------|
-----3-----------3--------|-----1--------1-----------|
--------2-----2-----------|--------2--------2--------|
--0--------0--------------|-----------2--------2-----|
--------------------------|--0--------------------0--|
--------------------------|--------------------------|

-----------------5--------|------------------|------------------|
--5--3h5h3-1--------------|------------------|------------------|
--------------4-----------|------------------|------------------|
--------------------------|------------------|------------------|
--------------------------|------------------|------------------|
--------------------------|------------------|------------------|

------------------|------------------|--------------------------|
------------------|------------------|--0-----------0-----------|
------------------|------------------|-----------0-----0--------|
------------------|------------------|--------2-----------2-----|
------------------|------------------|-----2-----------------2--|
------------------|------------------|--0-----------------------|

-----------------3--------|--------2h-3--2h3h2--------|
--3-----------3-----3-----|---------------------3-----|
-----------0-----------0--|-----2------------------2--|
--------0-----------------|--0------------------------|
-----2--------------------|---------------------------|
--3-----------------------|---------------------------|

--------------------------|--------------------------|
--0-----------0-----------|-----------1--------------|
-----------0-----0--------|--------0-----0-----------|
--------2-----------2-----|-----2-----------2-----2--|
-----2-----------------2--|--3-----------------3-----|
--0-----------------------|--------------------------|

-----------2--3h-2--------|--------------2-----------|
--------3-----------3-----|-----------3-----3--------|
-----2-----------------2--|--------4-----------4-----|
--0-----------------------|-----4-----------------4--|
--------------------------|--2-----------------------|
--------------------------|--------------------------|

-----------3-----2h-0h-2--|--0-----------2-----------|
--------------------------|-----0-----------3--------|
--------0-----0-----------|--------0-----------2-----|
-----2--------------------|-----------2--0--------0--|
--3-----------------------|--------------------------|
--------------------------|--0-----------------------|

--2-----------0-----------|--0-----------2-----------|
-----3-----------1--------|-----0-----------3--------|
--------4-----------0-----|--------0-----------2-----|
-----------4-----------2--|-----------2--0--------0--|
--2-----------3-----------|--------------------------|
--------------------------|--0-----------------------|

--2-----------0-----------|--0-----------2-----------|
-----3-----------1--------|-----0-----------3--------|
--------4-----------0-----|--------0-----------2-----|
-----------4-----------2--|-----------2--0--------0--|
--2-----------3-----------|--------------------------|
--------------------------|--0-----------------------|

--2-----------0-----------|--0-----------2-----------|
-----3-----------1--------|-----0-----------3--------|
--------4-----------0-----|--------0-----------2-----|
-----------4-----------2--|-----------2--0--------0--|
--2-----------3-----------|--------------------------|
--------------------------|--0-----------------------|

--2-----------0-----------|--0-----0--0--0--0--2-----2--2--2--2--|
-----3-----------1--------|--0-----0--0--0--0--3-----3--3--3--3--|
--------4-----------0-----|*-0-----0--0--0--0--2-----2--2--2--2--|
-----------4-----------2--|*-2-----2--2--2--2--0--x--0--0--0--0--|
--2-----------3-----------|--2-----2--2--2--2--------------------|
--------------------------|--0--x--0--0--0--0--------------------|
                                    8 раз
--2-----2--2--2--2--0-----0--0--0--0--|
--3-----3--3--3--3--1-----1--1--1--1--|
--4-----4--4--4--4--0-----0--0--0--0-*|
--4-----4--4--4--4--2-----2--2--2--2-*|
--2--x--2--2--2--2--3--x--3--3--3--3--|
--------------------------------------|

|-----2--------2h-3--5h-3--|
|--------3-----------------|
|-----------2--------------|
|--0-----------------------|
|--------------------------|
|--------------------------|

-----0--------0--------------|--0----------------|------------------||
--------1--------3h5h3-1--0--|--1----------------|------------------||
-----------2-----------------|--2----------------|------------------||
-----------------------------|--2----------------|------------------||
--0--------------------------|--0----------------|------------------||
-----------------------------|-------------------|------------------||

Удачи!

© Авторские права на тексты, песни, видео и другую представленную информацию принадлежат правообладателям. Аккорды, табы, gtp и тексты песен взяты из открытых источников.
Возрастная категория сайта: 18+
Тексты некоторых песен могут содержать нецензурные выражения, брань.
© 2020 guitar-chords.ru