Along Comes Mary

main riff
play twice
E ---------------------------------------------------------------------
B ---------------------------------------------------------------------
G -------------5-5-7-7-7-7-7-7-5-5-8-8-8-8-8-8-7-7-5-5-5-5-5-5-7-7-----
D -5-5-5-5-5-5-5-5-7-7-7-7-7-7-5-5-8-8-8-8-8-8-7-7-5-5-5-5-5-5-7-7-----
A -5-5-5-5-5-5-3-3-5-5-5-5-5-5-3-3-6-6-6-6-6-6-5-5-3-3-3-3-3-3-5-5-----
E -3-3-3-3-3-3---------------------------------------------------------
play twice
E -------------------------------------
B -------------------------------------
G ---------7-7-7-7-8-8-8-8-5-5-5-5-----
D -5-5-5-5-7-7-7-7-8-8-8-8-5-5-5-5-----
A -5-5-5-5-5-5-5-5-6-6-6-6-3-3-3-3-----
E -3-3-3-3-----------------------------
play once (1X/2X/3X) then twice (4X)
E -------------------------------------------
B -------------------------------------------
G -7-7-8-8---7-7-5-5---7-7-------7-7-3-3-----
D -7-7-8-8---7-7-5-5---7-7-5-5---7-7-3-3-----
A -5-5-6-6---5-5-3-3---5-5-5-5---5-5-1-1-----
E -------------------------3-3---------------
end with (palm mute)
E ---------------------------------------------------------------------
B ---------------------------------------------------------------------
G -7-7-8-8-8-8-8-8-8-8-5-5-5-5-5-5-5-5-7-7-7-7-7-7-7-7-3-3-3-3-3-3-----
D -7-7-8-8-8-8-8-8-8-8-5-5-5-5-5-5-5-5-7-7-7-7-7-7-7-7-3-3-3-3-3-3-----
A -5-5-6-6-6-6-6-6-6-6-3-3-3-3-3-3-3-3-5-5-5-5-5-5-5-5-1-1-1-1-1-1-----
E ---------------------------------------------------------------------
I think it's pretty much it...


© Авторские права на тексты, песни, видео и другую представленную информацию принадлежат правообладателям. Аккорды, табы, gtp и тексты песен взяты из открытых источников.
Возрастная категория сайта: 18+
Тексты некоторых песен могут содержать нецензурные выражения, брань.
© 2020 guitar-chords.ru