The roof is one fire

This song is really easy
PLAY ON ACOUSTIC FOR INTRO THEN VERSE IS ELECTRIC
Intro (8X)
    G                Em 
e---3--3-----3---3------0-----0---0--
B---0--0-----0---0------0-----0---0--
G---0--0-----0---0------0-----0---0--
D---0-----0----0---0--2----2----2---2
A---2-----2----2---2--2----2----2---2
E---3-----3----3---3--0----0----0---0
Verse
   G5              E5 
P.M .............  .............
e-------------------------------
B-------------------------------
G-------------------------------
D---5-5-5-5-5-5-5--2-2-2-2-2-2-2
A---5-5-5-5-5-5-5--2-2-2-2-2-2-2
E---3-3-3-3-3-3-3--0-0-0-0-0-0-0
Just play intro, chorus, intro, chorus..for the rest of the song
Its just G E G E G E G threoughout the song

© Авторские права на тексты, песни, видео и другую представленную информацию принадлежат правообладателям. Аккорды, табы, gtp и тексты песен взяты из открытых источников.
Возрастная категория сайта: 18+
Тексты некоторых песен могут содержать нецензурные выражения, брань.
© 2021 guitar-chords.ru