Это вступление для демоверсии и версии - которые играются на концертах
intro (distored guitar)
3|----------------10-----
4|-1010-8-10-11~---10
далее c вокалом вступает 2ая гитара - она играет куплет (он будет ниже):
можно подыграть вокалу (играется синхроно c ним):
how can you see into my eyes like open doors
leading you down into my core
where I-ve become so numb without a soul my spirit sleeping somewhere cold
until you find it there and lead it back home
                          like open doors                                 so numb
2|-1311-13-14-13-11-13-99-8-11~------13-14-16-14~13-11-13-9~9-8-9-11-9-8-----
                                 sleeping somewhere cold                          back home
2|-6~~6-7-8~11~9-8-9-8-6~6-7-8-14-13-11-14-13~-----------13-11-13-14-13-11-13-9~11~9~8~6~
куплет: (струны приглушать)
1|---------------------------------------------------
2|---------------------6~----------------------------
3|---------------------6~-6-6-6-6-x-6-6-6-6----------
4|-3-3-3-3-x-3-3-3-3---6~-6-6-6-6-x-6-6-6-6--6----3--
5|-3-3-3-3-x-3-3-3-3-4~----------------------6-4~-3--
6|---------------------------------------------------
вообще - что играет их гитарист в куплете это Fm  и C#m  - только без указательного пальца
в припеве играется все по стандартным аккордам
припев:
  Fm G# D#m/D#m7 Fm  G#m 
1|-1-4--6-/-6----8---11---
2|-1-4--6-/-8----8---11---
3|-1-5--8-/-6----10--13---
4|-3-6--8-/-8----10--13---
5|-3-6--6-/-6----8---11---
6|-1-4--6-/-6----8---11---
после 2ого припева (1.58)
   C#m D#m Fm Fm    (на аккордах C#m , D#m  дергаете струны - потом сразу глушите)
1|-4---6---1--1-
2|-4---6---1--1-
3|-6---8---1--1-
4|-6---8---3--3-
5|-4---6---3--3-
6|-4---6---1--1-
               ^^^
после второго раза - идет такое:
   Fm Gm G#m A#m 
1|-1--3---4---6---
2|-1--3---4---6---
3|-1--3---4---6---
4|-3--5---6---8---
5|-3--5---6---8---
6|-1--3---4---6---
Co словами frozen inside, without you..
   A#m G#m Gm Fm  (F#m Gm G#m A#m ) A#m G#m Gm Cm 
1|-6---4---3--1---(1---3---4--6)---6--4---3--3--
2|-6---4---3--1---(1---3---4--6)---6--4---3--3--
3|-6---4---3--1---(1---3---4--6)---6--4---3--5--
4|-8---6---5--3---(3---5---6--8)---8--6---5--5--
5|-8---6---5--3---(3---5---6--8)---8--6---5--3--
6|-6---4---3--1---(1---3---4--6)---6--4---3--3--
когда начинает поют дуэтом - играется куплет

how can you see into my eyes like open doors
leading you down into my core
where I-ve become so numb without a soul my spirit sleeping somewhere cold
until you find it there and lead it back home
(Wake me up)
Wake me up inside
(I can-t wake up)
Wake me up inside
(Save me)
call my name and save me from the dark
(Wake me up)
bid my blood to run
(I can-t wake up)
before I come undone
(Save me)
save me from the nothing I-ve become
now that I know what I-m without
you can't just leave me
breathe into me and make me real
bring me to life
(Wake me up)
Wake me up inside
(I can-t wake up)
Wake me up inside
(Save me)
call my name and save me from the dark
(Wake me up)
bid my blood to run
(I can-t wake up)
before I come undone
(Save me)
save me from the nothing I-ve become
frozen inside without your touch without your love darling only you are the life among the dead
all this time I can't believe I couldn't see
kept in the dark but you were there in front of me
I-ve been sleeping a thousand years it seems
got to open my eyes to everything
without a thought without a voice without a soul
don't let me die here
there must be something more
bring me to life
(Wake me up)
Wake me up inside
(I can-t wake up)
Wake me up inside
(Save me)
call my name and save me from the dark
(Wake me up)
bid my blood to run
(I can-t wake up)
before I come undone
(Save me)
save me from the nothing I-ve become
(Bring me to life)
I-ve been living a lie, there-s nothing inside
(Bring me to life)


© Авторские права на тексты, песни, видео и другую представленную информацию принадлежат правообладателям. Аккорды, табы, gtp и тексты песен взяты из открытых источников.
Возрастная категория сайта: 18+
Тексты некоторых песен могут содержать нецензурные выражения, брань.
© 2021 guitar-chords.ru