Tuning
Drop-D tuning.
e ---------------
B ---------------
G ---------------
D ---------------
A ---------------
D ---------------
----------------------------------------------------
Intro/Verse
(Transcribed from keyboard)
~ - short ring
E5 (1) E5 (2) 
e -------------|-------------------|
B ---------5~--|-------------5-----|
G -4~--4-5~--5~|----4--4-5-4---4~--|
D ---2---------|-2~---2------------|
A -------------|-------------------|
D -------------|-------------------|
1 2 
How can you see into my eyes like open doors
1 2 
Leading you down into my core, where I've become so numb
(Guitar - Distortion)
E5 
e -------------------------------------
B --------------------------------5~---
G -------------------------------------
D -------------------------------------
A -22-22-22-22-2xx-2--22-22-222--------
D -22-22-22-22-2xx-2--22-22-222-2/-----
E/C5 
e -------------------------------------
B -------------------------------------
G --------------------------------5^~--
D -------------------------------------
A -33-33-33-33-3xx-3--33-33-333--------
D -22-22-22-22-2xx-2--22-22-222-2/-----
E5 
Without a soul,
E/C5 
my spirit's sleeping somewhere cold.
E5 E/C5.. 
Until you find it there, and lead it back home
-------------------
Chorus
E5 G5 D5 E5 
e ----------------------
B ----------------------
G ----------------------
D --5-----7----7----2---
A --2-----5----0----2---
D --2-----5----0----2---
E5 
Wake me up inside
G5 
Wake me up inside
D5 
Call my name and
E5 
Save me from the dark
C5 D5 E5 
e -----------------------------------------------------------------
B -----------------------------------------------------------------
G -----------------------------------------------------------------
D --5-2-52-22-222-/--7-5-75-54-444---------------------------------
A --3-3-33-33-333-/--5-5-55-55-555--22-22-22-22-2xx-2--22-22-22-2--
D -------------------0---0-----0----22-22-22-22-2xx-2--22-22-22-2--
C5 D5 E5 
Bring me to life...
------------
Verse 2
(Guitar - Distortion)
E5 
e -------------------------------------
B --------------------------------5~---
G -------------------------------------
D -------------------------------------
A -22-22-22-22-2xx-2--22-22-222--------
D -22-22-22-22-2xx-2--22-22-222-2/-----
E/C5 
e -------------------------------------
B -------------------------------------
G --------------------------------5^~--
D -------------------------------------
A -33-33-33-33-3xx-3--33-33-333--------
D -22-22-22-22-2xx-2--22-22-222-2/-----
E5 E/C5 
Now that I know what I'm without, you can't just leave me.
E5 
Breathe into me... make me real.
E/C5 
Bring me to life.
---------------------
Bridge
e ---------------
B ---------------
G ---------------
D ---------------
A -----------2---
D --2--4--5------
C5 E5 D5 E5 
e ---------------------------
B ---------------------------
G --5------------------------
D --5----2---0---2-----------
A --3----2---0---2--------2--
D -------2---0---2--4--5-----
C5 E5 D5 B5 
e --------------------
B --------------------
G --5-----------------
D --5---2---0---4-----
A --3---2---0---2-----
D ------2---0---------
C5 E5 D5 
Frozen inside without your touch,
E5 
without your love. Darling,
C5 E5 D5 B5 
Only you are the life among the dead...
E5 
e -------------------------------------
B --------------------------------5~---
G -------------------------------------
D -------------------------------------
A -22-22-22-22-2xx-2--22-22-222--------
D -22-22-22-22-2xx-2--22-22-222-2/-----
E/C5 
e -------------------------------------
B -------------------------------------
G --------------------------------5^~--
D -------------------------------------
A -33-33-33-33-3xx-3--33-33-333--------
D -22-22-22-22-2xx-2--22-22-222-2/-----
E5 
(All of this time, I can't believe I couldn't see
Kept in the dark, but you were there in front of me.)
E/C5 
I've been sleeping a thousand years, it seems
got to open my eyes to everything.
E5 
(Without a thought, without a voice, without a soul...
Don't let me die here.
E/C5 
There must be something more
Bring me to life.
(back to chorus)


© Авторские права на тексты, песни, видео и другую представленную информацию принадлежат правообладателям. Аккорды, табы, gtp и тексты песен взяты из открытых источников.
Возрастная категория сайта: 18+
Тексты некоторых песен могут содержать нецензурные выражения, брань.
© 2021 guitar-chords.ru