Going Under

Аккорды писал мой друг c акустического выступления;
у их гитариста гитара настроена на полтона ниже его
электрогитары зато в один тон c акустикой, помоему
гитара должна быть настроена как y металлики (типа
на полтона ниже стандартного строя)
Вообщем вступления и куплеты играются на одном
аккорде -  который похож на Hm , но гитарист держит
только указательный палец на барре и мизинец... бой
сами подберите, я co 2 раза поняла, как его играть...
вообще гитарист на барре только Hm  брал - остальные
обычные аккорды, но под электрогитару надо всё на
барре брать

Intro.version:
    Hm 
1|---4---
2|---4---
3|---4---
4|---4---
5|---2---
6|---2---

Pre-chorus
   G Am Hm Em 
1|-3-0--2--0---
2|-0-1--3--0---
3|-0-2--4--0---
4|-0-2--4--2---
5|-2-0--2--2---
6|-3-0--2--0---

Chorus
    Hm  G  D   A 
1|--2---3--2---0---
2|--3---0--3---2---
3|--4---0--2---2---
4|--4---0--0---2---
5|--2---2--0---0---
6|--2---3--0---0---

after 2nd chorus
    G Fm№ Hm Am  G Fm№ Hm 
1|--3-2---2--0----3--2--2---
2|--0-2---3--1----0--2--3---
3|--0-2---4--2----0--2--4---
4|--0-4---4--2----0--4--4---
5|--2-4---2--0----2--4--2---
6|--3-2---2--0----3--2--2---

во время соло играется припев


© Авторские права на тексты, песни, видео и другую представленную информацию принадлежат правообладателям. Аккорды, табы, gtp и тексты песен взяты из открытых источников.
Возрастная категория сайта: 18+
Тексты некоторых песен могут содержать нецензурные выражения, брань.
© 2022 guitar-chords.ru