Tuning
The guitar is tuned VERY low in this song
Take it to Drop-D, then down a full step and a half
Db --------------------------
Ab --------------------------
Eb --------------------------
B  --------------------------
Gb --------------------------
B  --------------------------
---------------------------------------------------
Verse
   B5 
Db --------------------------
Ab --------------------------
Eb --------------------------
B ---------------------------
Gb -00--0-0------00--0-00----
B --00--0-0------00--0-00----
---------------------------
Pre-Chorus (transcribed from piano)
Db ---------------------------------------
Ab ----------------------------------------
Eb ---7-7-7-7----7-7-7-7-------------------
B  --3-3-3-3----5-5-5-5----3-3-3-3--2-2----
Gb -----------------------1-1-1-1--0-0-0-=-
B  ----------------------------------------
    I'm                  diving   again
--------------------------
Chorus
    B5      A5     D5       D/B5 
Db --------------------------------
Ab --------------------------------
Eb --------------------------------
B  ----------33-3/----------55-----
Gb -0-0--000-11-1/-3-3--333/33-----
B  -0-0--000-------3-3--333/55-----
    B5       A5    D5       C/D5 
Db -------------------------------
Ab -------------------------------
Eb -------------------------------
B  ----------33-3\----------------
Gb -0-0--000-11-1\-3-3--333/33-33-
B  -0-0--000-------3-3--333/22-22-
           B5 A5 D5 D/B5 
I'm going under
            B5 A5 D5 C/D5 
Drowning in you
                B5 A5 D5 D/B5 
I'm falling forever
                     B5 A5 D5 C/D5 
I've got to break through
                D5 
I'm going under
---------------
Bridge
    A5          G#5        B5        B5 
Db --------------------------------------------
Ab --------------------------------------------
Eb --------------------------------------------
B  --3333-3333--2222-2222----------------------
Gb --1111-1111--0000-0000--0000-0000-0000-0000-
B  ------------------------0000-0000-0000-0000-
              A5 
So go on and scream
          G#5 
Scream at me
         B5 
So far away {so far away}
  B5 
I won't be broken again
A5             G#5 
  I've got to breathe
                    B5 (guitar solo) 
I can't keep going under
--------------
Solo
(needs some work but this will play over the rhythm guitar (chorus riff))
Db ---------------------------------------
Ab ------------------6p5p3-5p3------------
Eb ----------------------------3p2-5-5h7--
B  --------3h5p3h7~-----------------------
Gb -----3h5-------------------------------
B  --5h7----------------------------------

Db -------------------------------------
Ab --10^10-10-10~-8---------------------
Eb -----------------10-10h12p10-9-9p7~--
B  -------------------------------------
Gb -------------------------------------
B  -------------------------------------


© Авторские права на тексты, песни, видео и другую представленную информацию принадлежат правообладателям. Аккорды, табы, gtp и тексты песен взяты из открытых источников.
Возрастная категория сайта: 18+
Тексты некоторых песен могут содержать нецензурные выражения, брань.
© 2022 guitar-chords.ru