Tuning: EADGBE (STANDARD)

Intro- Repeat, listen to the song
e|-------0------0-------0------0-------------------0-----0---|
B|-------0------0-------0------0-------------------x-----x---|
G|-------------------------------------7-----7-----2-----2---|
D|----9-------9-------5------5---------0-----0---------------|
A|--7-------7-------3------3---------8-----8-----3-----3-----|
E|-------------------------------0-6-----6-----1-----1-------|

Verses- Same as intro

Chorus
e|-----------------------------------------------------------|
B|------0-0-0-----------------0-------------0---0------------|
G|------0-0-0-0-0--0--------0-0-0---0--0-0--0---0------------|
D|--------4-4-0-0--0-7X---5---------2--0-0--0-0-0--0---------|
A|----2---------x--x----3---------0-0--0-0----0-0--0---------|
E|--0-----------3--3----------------------------0--0---------|

Chorus Continued- Listen for timing, etc.
e|-----------------------------------------------------------|
B|-------0-0-0-----------------------------------------------|
G|-------0-0-0-0--0--0-----7------5--------------------------|
D|---------4-4-0--0--0-7X--7-4X---5-7X-----------------------|
A|----2-----------x--x-----5------3--------------------------|
E|--0-------------3--3-----5----0-3--------------------------|

Bridge- Listen for this part
e|----------------------------------------------------------|
B|----------------------------------------------------------|
G|-0-----2------------------------0-------------------------|
D|-0-5x--1-8X--4---------5--------3-------------------------|
A|-x-----2-----2-5X------4--12X---3--11X--------------------|
E|-3-----------0---------5--------1-------------------------|

© Авторские права на тексты, песни, видео и другую представленную информацию принадлежат правообладателям. Аккорды, табы, gtp и тексты песен взяты из открытых источников.
Возрастная категория сайта: 18+
Тексты некоторых песен могут содержать нецензурные выражения, брань.
© 2021 guitar-chords.ru