#табулатура

    "Urban Discipline"
Shades Of Grey

   Intro/Verse         I
e-|---------------------------------------------------|--|
B-|---------------------------------------------------|--|
G-|---------------------------------------------------|%-|
D-|---------------------2-----------------------------|%-|
A-|-5\4-4-4--4---5\4-4--2--4-4--5\4-4-4-4--5-4-4--7-7-|--|
E-|-3\2-2-2--2---3\2-2--0--2-2--3\2-2-2-2--3\2-2--5-5-|--|
   Chorus              II
e-|----------------------------------------|--|--
B-|----------------------------------------|--|--
G-|----------------------------------------|%-|--
D-|----------------------------------------|%-|--
A-|-2-2-2--5-5--2-2--2--5-5--2-2-2--5-5--2-|--|--
E-|-0-0-0--3-3--0-0--0--3-3--0-0-0--3-3--0-|--|--

Song Structure:I(x6), II(x2), I(x4), II(x3)

© Авторские права на тексты, песни, видео и другую представленную информацию принадлежат правообладателям. Аккорды, табы, gtp и тексты песен взяты из открытых источников.
Возрастная категория сайта: 18+
Тексты некоторых песен могут содержать нецензурные выражения, брань.
© 2020 guitar-chords.ru